Oops, an error
Loading. Please wait.

Carved Inside tab

version 2
version 2

Whole song

Interactive

by Soulfly
536 views 1 this week
1 commentread comment
1 2 3 4 5
1 last vote to show rating
add to favorites
×
Save as Personal and add changes to this tab that will be seen only by you. Learn more ›
×
You can save this tab as Personal to edit and correct it or add notes. All changes will be seen only by you. Learn more »
launch autoscroll
font size
0
reset
how to read this tab
guitar tuner
edit
Autoscroll
slow
fast
+/-
esc
set tempo
stop
-------------------------------------------------------------------------------
                             CARVED INSIDE - Soulfly
-------------------------------------------------------------------------------
Tabbed by: Stoten123 
Email: jamesstoten@hotmail.com

Tuning: Drop B (B F# B E G# C#)

Intro:
C#|-------------------------------------|
G#|-------------------------------------|
E |-------------------------------------|
B |-------------9-------2-------3-------|
F#|-------------7-0-0-0-0-0-0-0-1-0-0-0-|
B |-------------------------------------|
   PM             - - -   - - -   - - - 

C#|-------------------------------------|
G#|-------------------------------------|
E |-------------------------------------|
B |-10-10-10-10-9-------2-------3-------|
F#|-8--8--8--8--7-0-0-0-0-0-0-0-1-0-0-0-| x7
B |-------------------------------------|
   PM             - - -   - - -   - - - 

C#|-------------------------------------|
G#|-------------------------------------|
E |-------------------------------------|
B |-10-10-10-10-9-------2-------3-------|
F#|-8--8--8--8--7-------0-------1-------| x4
B |---------------0-0-0---0-0-0---0-0-0-|
   PM             - - -   - - -   - - - 

 The next bit is something like this:
C#|---------------------------------------------|
G#|---------------------------------------7h8p7-|
E |-9---9---9-7------9---9---9-7------7-9-------|
B |---x---x-----10-9---x---x-----10-9-----------|
F#|---------------------------------------------|
B |---------------------------------------------|

Verse 1 and 3:
C#|----------------------------|
G#|----------------------------|
E |----------------------------|
B |----------------------------|
F#|-7---7---11---11---10---8---|
B |---0---0----0----0----------|
   PM -   -    -    -

Chorus:
C#|-----------------|
G#|-----------------|
E |-----------------|
B |-7-9-9-9-9-9-9-9-|
F#|-5-7-7-7-7-7-7-7-|
B |-----------------|

Verse 2:
C#|-----------------------------------------|
G#|-----------------------------------------|
E |-----------------------------------------|
B |-10-10-10-10-7-7-7-7-10-10-10-10-6-6-6-6-|
F#|-8--8--8--8--5-5-5-5-8--8--8--8--4-4-4-4-|
B |-----------------------------------------|

Solo Backing:
C#|----------------------------------------------|
G#|----------------------------------------------|
E |----------------------------------------------|
B |-10-10-10-10----------------------------------|
F#|-8--8--8---8----------------------------------|
B |--------------14\-0-0-14\-0-0-14\-0-0-14\-0-0-|
 



            
            
Suggest correction
Creating personal tab
Creating personal tab
You can edit any tab online and save it as your Personal.

You can edit, replace or remove any tab part or add personal notes – all changes will be seen only by you.

Personal tabs can be accessed anytime from any device, even offline.
Learn more »
Give kudos to tab author, rate the tab!
1 2 3 4 5
comments
print report bad tab
1 comment total.
0 reply
jolepole 30 Sep 20, 2006 08:26 AM

thanks for tabbing it. i couldnt give 5 stars because of the one bit that
aint right. Allmost perfect thanks....

guest
You may want to rate the tab now too:
select rating
Wanna post a correction for this tab? Suggest correction