Oops, an error
Loading. Please wait.

Carved Inside tab

version 3
version 3

Whole song

Interactive

by Soulfly
649 views 3 this week
no commentswrite comment
1 2 3 4 5
2 more votes to show rating
add to favorites
×
Save as Personal and add changes to this tab that will be seen only by you. Learn more ›
×
You can save this tab as Personal to edit and correct it or add notes. All changes will be seen only by you. Learn more »
launch autoscroll
font size
0
reset
how to read this tab
guitar tuner
edit
Autoscroll
slow
fast
+/-
esc
set tempo
stop
Author
Difficulty
Carved Inside - Soulfly

from the album Dark Ages

tab by bikenutter

Legend
\  = slide
~  = let ring
b  = bend
br = bend and release
h  = hammer on
p  = pull off
x  = heavily muted note
PM = Palm Mute
x\ = pick slide
*  = pinch harmonic
t  = tap

guitar 1: Mark Rizzo C# F# B E G# C#
guitar 2: Max Cavalera C# F# B E G# C#


Intro

Guitars 1 and 2
C#-------------------------------------------------|
F#-------------------------------------------------|
B--------------------------------------------------|
E-----9-----------2-------3-------10-10-10-10-9----|
G#----7-0-0-0-0-0-0-0-0-0-1-0-0-0--8--8--8--8-7----|
C#-------------------------------------------------|
  PM    .........   .....   .....

C#-----------------------------------------------|
F#-----------------------------------------------|
B------------------------------------------------|
E-----10-10-10-10-9-----------2-------3----------| repeat as necessary
G#-----8--8--8--8-7-0-0-0-0-0-0-0-0-0-1-0-0-0----|
C#-----------------------------------------------|
  PM                .........   .....   .....

C#-------------------------------------|
F#-------------------------------------|
B--------------------------------------|
E-----10-10-10-10-9--------------------|
G#-----8--8--8--8-7-----7-----8--------|
C#------------------0-0-5-0-0-6-0-0----|
  PM                ...   ...   ...

then...

Guitar 1
C#-----------------------------------------------------------|
F#------------------------------------------------------6----|
B-----9---9---9-7------9-7-------9---9---9-7------9-7-5------|
E-----------------10-9-----10-9--------------10-9------------|
G#------7---7----------------------7---7---------------------|
C#-----------------------------------------------------------|
  PM    .   .                      .   .

C#--------------------------------------------------------------|
F#------------9-7------9-7--------------------------------------|
B-----9---9-------10-9-----10--10-9-7---------------------------|
E-------------------------------------10-9-7--9-7-5-------------|
G#------7---7----------------------------------------9-7-5-7----|
C#--------------------------------------------------------------|
  PM    .   .

Guitar 2 (chug!)
C#-----------------------------------------|
F#-----------------------------------------|
B------------------------------------------|
E------------------------------------------|
G#----2-2-2-2-2-2-2-2-2-2-2-2-2-2-2-2-2----|
C#----0-0-0-0-0-0-0-0-0-0-0-0-0-0-0-0-0----|
  PM  .................................

verse

Guitars 1 and 2
C#--------------------------------|
F#--------------------------------|
B---------------------------------|
E---------------------------------|
G#----7---7---11---11---10---8----|
C#------0---0----0----0----0------|
  PM    .   .    .    .    .

Chorus

Guitars 1 and 2
C#------------------------------------------|
F#------------------------------------------|
B-------------------------------------------|
E-----7-9-9-9--9--9-9-9--9-9-9--9--9-9-9----|
G#----5-7-7-7--7--7-7-7--7-7-7--7--7-7-7----|
C#------------------------------------------|

verse

Guitars 1 and 2
C#----------------------------------------------------------|
F#----------------------------------------------------------|
B-----------------------------------------------------------|
E-----10-10-10-10---------------10-10-10-10-----------------|
G#-----8--8--8--8--12-12-12-12---8--8--8--8--11-11-11-11----|
C#-----------------10-10-10-10----------------9--9--9--9----|

then Guitar 2 continues while Guitar 1 plays (clean)
C#------------------------------------------------------|
F#------------------------------------------------------|
B-------11----11-----11----11----11----11---11----11----|
E----------10-----------10----------10---------10-------|
G#----8------------------------8------------------------|
C#----------------10----------------------9-------------|

then Chorus again

Guitars 1 and 2
C#------------------------------------------|
F#------------------------------------------|
B-------------------------------------------|
E-----7-9-9-9--9--9-9-9--9-9-9--9--9-9-9----|
G#----5-7-7-7--7--7-7-7--7-7-7--7--7-7-7----|
C#------------------------------------------|


Guitar 2
C#----------------------------------------------------------|
F#----------------------------------------------------------|
B-----------------------------------------------------------|
E-----10-10-10-10---------------10-10-10-10-----------------|
G#-----8--8--8--8--12-12-12-12---8--8--8--8--11-11-11-11----|
C#-----------------10-10-10-10----------------9--9--9--9----|

Guitar 1 plays (clean)
C#------------------------------------------------------|
F#------------------------------------------------------|
B-------11----11-----11----11----11----11---11----11----|
E----------10-----------10----------10---------10-------|
G#----8------------------------8------------------------|
C#----------------10----------------------9-------------|

then

Guitar 1
C#-----------------------------------------------------------|
F#------------------------------------------------------6----|
B-----9---9---9-7------9-7-------9---9---9-7------9-7-5------|
E-----------------10-9-----10-9--------------10-9------------|
G#------7---7----------------------7---7---------------------|
C#-----------------------------------------------------------|
  PM    .   .                      .   .

C#--------------------------------------------------------------|
F#------------9-7------9-7--------------------------------------|
B-----9---9-------10-9-----10--10-9-7---------------------------|
E-------------------------------------10-9-7--9-7-5-------------|
G#------7---7----------------------------------------9-7-5-7----|
C#--------------------------------------------------------------|
  PM    .   .

Guitar 2 (chug!)
C#-----------------------------------------|
F#-----------------------------------------|
B------------------------------------------|
E------------------------------------------|
G#----2-2-2-2-2-2-2-2-2-2-2-2-2-2-2-2-2----|
C#----0-0-0-0-0-0-0-0-0-0-0-0-0-0-0-0-0----|
  PM  .................................

verse again

Guitars 1 and 2
C#--------------------------------|
F#--------------------------------|
B---------------------------------|
E---------------------------------|
G#----7---7---11---11---10---8----|
C#------0---0----0----0----0------|
  PM    .   .    .    .    .


bass interlude

Solo

Guitar 1 (with wah)
C#-----------------------------------------16b-16b-16b-16b----|
F#----17-17-17-17-17-17-17-17-17-17-17-17--17b-17b-17b-17b----|
B-------------------------------------------------------------|
E-------------------------------------------------------------|
G#------------------------------------------------------------|
C#------------------------------------------------------------|
                                                               x 2
C#-----------------------------------------19b-19b-19b-19b----|
F#----17-17-17-17-17-17-17-17-17-17-17-17--20b-20b-20b-20b----|
B-------------------------------------------------------------|
E-------------------------------------------------------------|
G#------------------------------------------------------------|
C#------------------------------------------------------------|

C#----t19p17p12-t19p17p12-t19p17p12-t19p17p12----|
F#-----------------------------------------------|
B------------------------------------------------|
E------------------------------------------------|
G#-----------------------------------------------|
C#-----------------------------------------------|

C#----t19p17p12-t19p17p12-t20p17p12-t20p17p12----|
F#-----------------------------------------------|
B------------------------------------------------|
E------------------------------------------------|
G#-----------------------------------------------|
C#-----------------------------------------------|

C#----t19p16p12-t19p16p12-t19p16p12-t19p16p12----|
F#-----------------------------------------------|
B------------------------------------------------|
E------------------------------------------------|
G#-----------------------------------------------|
C#-----------------------------------------------|

C#----t18p1612-t1816p12-t1816p12-t1816p12----|
F#-------------------------------------------|
B--------------------------------------------|
E--------------------------------------------|
G#-------------------------------------------|
C#-------------------------------------------|

Guitar 2
C#----------------------------------------|
F#----------------------------------------|
B-----------------------------------------|
E-----10-10-10-10-------------------------|
G#-----8--8--8--8-------------------------| as required
C#----------------12///0-12///0-12///0----|

breakdown

Guitars 1 and 2
C#------------------------------------------|
F#------------------------------------------|
B-------------------------------------------|
E-------------------------------------------|
G#----7-----7-----11-----11-----10---8------|
C#------0-0---0-0----0-0----0-0----0---0----|
  PM    ...   ...    ...    ...    .   .


C#---------|
F#---------|
B----------|
E-----2----|
G#----2----|
C#----0----|

finito

questions comments mail me: bikenutter@hotmail.com

lyrics
Carved inside - carved outside
Scream at the sky - forever fight
My peace of mind - I got to find
True peace of mind - so hard to find

Now...
I feel your soul inside
Now...
Carved inside

They try to bring us down
We're growing all around
Inside you must be free
To find your destiny
Lose yourself
Find yourself
Nothing to prove
To nobody else

Now...
Feel your soul inside
Now...
Carved inside

My life is mine
My right is mine
Your eyes petrified
Fire from inside...

Carved inside - carved outside
Feel your soul glow - in the sky...
Let your soul now - move the world now
Feel your soul now - let your soulfly...

You must change from
Inside out
You fall, we rise
Inside out

            
            
Suggest correction
Creating personal tab
Creating personal tab
You can edit any tab online and save it as your Personal.

You can edit, replace or remove any tab part or add personal notes – all changes will be seen only by you.

Personal tabs can be accessed anytime from any device, even offline.
Learn more »
Give kudos to tab author, rate the tab!
1 2 3 4 5
comments
print report bad tab
guest
You may want to rate the tab now too:
select rating
Wanna post a correction for this tab? Suggest correction