Oops, an error
Loading. Please wait.

Seek N Strike tab

version 6
version 6
by Soulfly
185 views 3 this week
no commentswrite comment
1 2 3 4 5
3 more votes to show rating
add to favorites
×
Save as Personal and add changes to this tab that will be seen only by you. Learn more ›
×
You can save this tab as Personal to edit and correct it or add notes. All changes will be seen only by you. Learn more »
launch autoscroll
font size
0
reset
how to read this tab
guitar tuner
edit
Autoscroll
slow
fast
+/-
esc
set tempo
stop
ARTIST:SOULFLY
SON:SEEK N STRIKE
By lrfg_deft@hotmail.com

INTRO

e-------------------------------|| X Repeat 4 times 
b-------------------------------||
g-------------------------------||
d-------------------------------||
a-------------------------------||
B-3-2--3h2--2-55--2-2--3h2------|| 

 1 verse
Here we go¡
e-------------------------------|| X Repeat 8 times
b-------------------------------||
g-------------------------------||
d-------------------------------||
a-------------------------------||
B-3-2--3h2--2-55--2-2--3h2------|| 


Than keep living on my knees

e------------------------------|| X Repeat 4 times
b------------------------------||
g------------------------------||
d------------------------------||
a-2222/3333------7777/10101010-||
B-2222/3333------7777/10101010-|| 

e------------------------------|| use the wah 
b-3^--3^--3^-------------------||
g------------------------------||
d------------------------------||
a------------------------------||
B------------------------------|| 


2 verse

Here we go¡
e-------------------------------|| X Repeat 8 times
b-------------------------------||
g-------------------------------||
d-------------------------------||
a-------------------------------||
B-3-2--3h2--2-55--2-2--3h2------||


God bless me inside

e------------------------------|| X Repeat 4 times
b------------------------------||
g------------------------------||
d------------------------------||
a-2222/3333------7777/10101010-||
B-2222/3333------7777/10101010-|| 

e------------------------------|| use the wah 
b-3^--3^--3^-------------------||
g------------------------------||
d------------------------------||
a------------------------------||
B------------------------------|| 

CHORUS

Seek 'N' Strike   Seek 'N' Strike

e------------------------------|| Repeat 3 times
b------------------------------||
g------------------------------||
d------------------------------||                   X 2 itmes
a-2x2xx2-3---------------------||
B-2x2xx2-3---------------------||

e------------------------------|| 
b------------------------------||
g------------------------------||
d------------------------------||
a-2222/333/444-----------------||
B-2222/333/444-----------------||

Interlude

e------------------------------|| 
b------------------------------||
g------------------------------||      Repeat 4 times
d------------------------------||
a-2-1---2h1-1--44--11--2h1-----||
B------------------------------||

3 verse 

Here we go¡

e-------------------------------|| X Repeat 8 times
b-------------------------------||
g-------------------------------||
d-------------------------------||
a-------------------------------||
B-3-2--3h2--2-55---2-2--3h2-----||


Than keep living on my knees

e------------------------------|| X Repeat 4 times
b------------------------------||
g------------------------------||
d------------------------------||
a-2222/3333------7777/10101010-||
B-2222/3333------7777/10101010-|| 

e------------------------------|| use the wah 
b-3^--3^--3^-------------------||
g------------------------------||
d------------------------------||
a------------------------------||
B------------------------------|| 

4 verse 

Here we go¡

e-------------------------------|| X Repeat 8 times
b-------------------------------||
g-------------------------------||
d-------------------------------||
a-------------------------------||
B-3-2--3h2--2-55--2-2--3h2------||


It's time to arise

e------------------------------|| X Repeat 4 times
b------------------------------||
g------------------------------||
d------------------------------||
a-2222/3333------7777/10101010-||
B-2222/3333------7777/10101010-|| 

e------------------------------|| use the wah 
b-3^--3^--3^-------------------||
g------------------------------||
d------------------------------||
a------------------------------||
B------------------------------|| 

CHORUS

Seek 'N' Strike   Seek 'N' Strike

e------------------------------|| Repeat 3 times
b------------------------------||
g------------------------------||
d------------------------------||                   X 2 itmes
a-2x2xx2-3---------------------||
B-2x2xx2-3---------------------||

e------------------------------|| 
b------------------------------||
g------------------------------||
d------------------------------||
a-2222/333/444-----------------||
B-2222/333/444-----------------||

interlude

e------------------------------|| 
b------------------------------|| X 19 times
g------------------------------||
d------------------------------||
a-2x2--------------------------||
B-2x2--------------------------||

parte cuando grita una mujer 

e------------------------------|| 
b------------------------------|| X 14 times
g------------------------------||
d------------------------------||
a--2/3--5/2--------------------||
B--2/3--5/2--------------------||

SOLO  use the wah in all the solo

e---------------------------------------------------------------|| 
b---------------------------------------------------------------|| 
g-5555555-3333-222222-------------------------------------------||
d---------------------3333/4444/777/101010-99999999/121212------||
a---------------------------------------------------------------||
B---------------------------------------------------------------||

e---------------------------------------------------------------|| 
b---------------------------------------------------------------|| 
g-----------------------------------------181818-202020--171717^||
d-151515-171717-1616-191919191-22-22-22-------------------------||
a---------------------------------------------------------------||
B---------------------------------------------------------------||

eso es todo mis chingones 

            
            
Suggest correction
Creating personal tab
Creating personal tab
You can edit any tab online and save it as your Personal.

You can edit, replace or remove any tab part or add personal notes – all changes will be seen only by you.

Personal tabs can be accessed anytime from any device, even offline.
Learn more »
Give kudos to tab author, rate the tab!
1 2 3 4 5
comments
print report bad tab
guest
Wanna post a correction for this tab? Suggest correction