Oops, an error
Loading. Please wait.

Warmageddon tab

version 1
version 1

Whole song

by Soulfly
782 views 1 this week
no commentswrite comment
1 2 3 4 5
2 more votes to show rating
add to favorites
×
Save as Personal and add changes to this tab that will be seen only by you. Learn more ›
×
You can save this tab as Personal to edit and correct it or add notes. All changes will be seen only by you. Learn more »
launch autoscroll
font size
0
reset
how to read this tab
guitar tuner
edit
Autoscroll
slow
fast
+/-
esc
set tempo
stop
-------------------------------------------------------------------------------
                             Warmageddon - Soulfly
-------------------------------------------------------------------------------
Tabbed by: Martinoob
E-mail: Martin1990991@gmx.de

Tuning: DGCFAD



0:20 - 0:22

both guitars
D|----------------------------------------|
A|----------------------------------------|
F|----------------------------------------|
C|-3-----------------------1--------------|
G|-3-----------------------1--------------|
D|(1)--------------0------(0)-------------|



0:22 - 0:46

guitar 1
D|----------------------------------------------------------------|
A|----------------------------------------------------------------|
F|----------------------------------------------------------------|
C|---------9-\-8--------------------------------------------------| 
G|---------7-\-6-----------8-------2---2---2-------2-------2------|
D|-7---8-----------7---6-----------0---0---0-------0-------0------|
                          p.h.
guitar 2
D|----------------------------------------------------------------|
A|----------------------------------------------------------------|
F|----------------------------------------------------------------|
C|---------9-\-8-----------7--------------------------------------| 
G|---------7-\-6-------------------2---2---2-------2-------2------|
D|-7---8-----------7---6-----------0---0---0-------0-------0------|
                          p.h.

guitar 1
D|----------------------------------------------------------------|
A|----------------------------------------------------------------|
F|----------------------------------------------------------------|
C|---------9-\-8--------------------------------------------------| 
G|---------7-\-6-----------8-------2---2---2-------2-------2------|
D|-7---8-----------7---6-----------0---0---0-------0-------0------|
                          p.h.
guitar 2
D|----------------------------------------------------------------|
A|----------------------------------------------------------------|
F|----------------------------------------------------------------|
C|---------9-\-8-----------7--------------------------------------| 
G|---------7-\-6-------------------2---2---2-------2-------2------|
D|-7---8-----------7---6-----------0---0---0-------0-------0------|
                          p.h.

guitar 1
D|----------------------------------------------------------------|
A|----------------------------------------------------------------|
F|----------------------------------------------------------------|
C|---------9-\-8--------------------------------------------------| 
G|---------7-\-6-----------8-------2---2---2-------2-------2------|
D|-7---8-----------7---6-----------0---0---0-------0-------0------|
                          p.h.
guitar 2
D|----------------------------------------------------------------|
A|----------------------------------------------------------------|
F|----------------------------------------------------------------|
C|---------9-\-8-----------7--------------------------------------| 
G|---------7-\-6-------------------2---2---2-------2-------2------|
D|-7---8-----------7---6-----------0---0---0-------0-------0------|
                          p.h.

both guitars
D|----------------------------------------------------------------|
A|----------------------------------------------------------------|
F|----------------------------------------------------------------|
C|---------9-\-8-----------3-----------------------1--------------|
G|---------7-\-6-----------3-----------------------1--------------|
D|-7---8-----------7---6--(1)--------------0------(0)-------------|



[both guitars (Live version)]
D|----------------------------------------------------------------|
A|----------------------------------------------------------------|
F|----------------------------------------------------------------|
C|---------9-\-8-----------10----------------------8--------------|
G|---------7-\-6-----------8-----------------------6--------------|
D|-7---8-----------7---6-------------------0----------------------|



1:33 - 1:57

both guitars
D|----------------------------------------------------------------|
A|----------------------------------------------------------------|
F|----------------------------------------------------------------|
C|---------3-----------------------1------------------------------|
G|---------3-----------------------1------------------------------|
D|-0------(1)--------------0------(0)----------------------0------|


D|-----------|
A|-----------|
F|-----------|
C|--2~~~~~---|  
G|--2~~~~~---|
D|--0~~~~~---|


D|-----------|
A|-----------|
F|-----------|
C|--2~~~~~---|  
G|--2~~~~~---|
D|--0~~~~~---|



1:58 - 2:09

both guitars
D|--------------------------------------------------|
A|--------------------------------------------------|
F|--------------------------------------------------|
C|----------10--9--------6--7--6--------------------|
G|--------------------------------------------------|
D|-0--0--0---------0--0-----------0--0--0--0--0000--|
               p.h.



2:09 - 2:20

guitar 1
D|--11---------11---------11---------11---------12---------|
A|------10---------10---------10---------10---------10-----|
F|----------8----------8----------8----------8----------8--|
C|---------------------------------------------------------|
G|---------------------------------------------------------|
D|---------------------------------------------------------|

guitar 2
D|--------------------------------------------|
A|--------------------------------------------|
F|--------------------------------------------|
C|---1----------1----------1---------2--------|  
G|---1---2--2---1---2--2---1---2--2--2--2--2--|
D|--(0)--------(0)--------(0)--------0--------|


guitar 1
D|--11---------11---------11---------11----------9---------|
A|------10---------10---------10---------10---------10-----|
F|----------8----------8----------8----------8----------8--|
C|---------------------------------------------------------|
G|---------------------------------------------------------|
D|---------------------------------------------------------|

guitar 2
D|--------------------------------------------|
A|--------------------------------------------|
F|--------------------------------------------|
C|---1----------1----------1---------2--------|  
G|---1---2--2---1---2--2---1---2--2--2--2--2--|
D|--(0)--------(0)--------(0)--------0--------|


guitar 1
D|--11---------11---------11---------11---------12---------|
A|------10---------10---------10---------10---------10-----|
F|----------8----------8----------8----------8----------8--|
C|---------------------------------------------------------|
G|---------------------------------------------------------|
D|---------------------------------------------------------|

guitar 2
D|--------------------------------------------|
A|--------------------------------------------|
F|--------------------------------------------|
C|---1----------1----------1---------2--------|  
G|---1---2--2---1---2--2---1---2--2--2--2--2--|
D|--(0)--------(0)--------(0)--------0--------|


guitar 1
D|---4-7p6p4-----10p9p7-----13p12p10------16p15p13------22b-|
A|-6---------6----------9------------12------------15---21b-|
F|----------------------------------------------------------|
C|----------------------------------------------------------|
G|----------------------------------------------------------|
D|----------------------------------------------------------|

guitar 2
D|--------------------------------------------|
A|--------------------------------------------|
F|--------------------------------------------|
C|---1----------1----------1---------2--------|  
G|---1---2--2---1---2--2---1---2--2--2--2--2--|
D|--(0)--------(0)--------(0)--------0--------|



2:20 - 2:30

both guitars
D|-----------------------------------------------|
A|-----------------------------------------------|
F|-----------------------------------------------|
C|---1----------1----------1---------------------|
G|---1----------1----------1---------------------|
D|--(0)--0--0--(0)--0--0--(0)--0--0--0--0--0--0--|



3:01 - 3:09

guitar 1
D|-------------------------------|
A|-------------------------------|
F|-------------------------------|
C|-------------------------------|  
G|-------------2-tp-1-tp----4-tp-|
D|-3-tp--------------------------|

guitar 2
D|-------------------------------|
A|-------------------------------|
F|-------------------------------|
C|-5-----------------------------|  
G|-5-----------------------------|
D|-3-----------------------------|



3:09 - 3:24

rhythm guitar
D|-------------------------------|
A|-------------------------------|
F|-------------------------------|
C|-------------------------------|  
G|-------------2-tp-1-tp----4-tp-|
D|-3-tp--------------------------|



3:24 - 3:39

both guitars
D|-----------------------------------------------------------------------------------|
A|-----------------------------------------------------------------------------------|
F|-----------------------------------------------------------------------------------|
C|-----------------------------------------------------------------------------------| 
G|-----------------------------------------------------------------------------------|
D|--3-2-222222222222-3-2-3-2-222222222222-3-2-3-2-222222222222-3-2-1111111111111111--|

*just for a better overview

D|-----------------------------------------------------------------------------------|
A|-----------------------------------------------------------------------------------|
F|-----------------------------------------------------------------------------------|
C|-----------------------------------------------------------------------------------| 
G|-----------------------------------------------------------------------------------|
D|--3-2-222222222222-3-2-3-2-222222222222-3-2-3-2-222222222222-3-2-1111111111111111--|


guitar 1
D|-----------------------------------------------------------------------------------|
A|-----------------------------------------------------------------------------------|
F|-----------------------------------------------------------------------------------|
C|-----------------------------------------------------------------------------------| 
G|-----------------------------------------------------------------------------------|
D|--3-2-222222222222-3-2-3-2-222222222222-3-2-3-2-222222222222-3-2-1111111111111111--|

guitar 2
D|-----------------------------------------------------------------------------------|
A|-----------------------------------------------------------------------------------|
F|-----------------------------------------------------------------------------------|
C|-----------------------------------------------------------------------------------| 
G|--2-1-111111111111-2-1-2-1-111111111111-2-1-2-1-111111111111-2-1-0000000000000000--|
D|-----------------------------------------------------------------------------------|


guitar 1
D|-----------------------------------------------------------------------------------|
A|-----------------------------------------------------------------------------------|
F|-----------------------------------------------------------------------------------|
C|-----------------------------------------------------------------------------------| 
G|-----------------------------------------------------------------------------------|
D|--3-2-222222222222-3-2-3-2-222222222222-3-2-3-2-222222222222-3-2-1111111111111111--|

guitar 2
D|-----------------------------------------------------------------------------------|
A|-----------------------------------------------------------------------------------|
F|-----------------------------------------------------------------------------------|
C|-----------------------------------------------------------------------------------| 
G|--2-1-111111111111-2-1-2-1-111111111111-2-1-2-1-111111111111-2-1-0000000000000000--|
D|-----------------------------------------------------------------------------------|



3:39 - 3:54

rhythm guitar
D|-------------------------------|
A|-------------------------------|
F|-------------------------------|
C|-------------------------------|  
G|-------------2-tp-1-tp----4-tp-|
D|-3-tp--------------------------|



3:54 - 4:24

guitar 1
D|--------------------------------------------------------------------------|
A|--------------------------------------------------------------------------|
F|--------------------------------------------------------------------------|
C|--------------------------------------------------------------------------|
G|--------------------------------------------------------------------------|
D|--3-2--2-2-2-2--3-2-3-2--2-2-2-2--3-2-3-2--2-2-2-2--3-2--1-1-1-1-1-1-1-1--|

guitar 2 (fades in)
D|--------------------------------------------------------------------------|
A|--------------------------------------------------------------------------|
F|--------------------------------------------------------------------------|
C|--------------------------------------------------------------------------|
G|--2-1--1-1-1-1--2-1-2-1--1-1-1-1--2-1-2-1--1-1-1-1--2-1--0-0-0-0-0-0-0-0--|
D|--------------------------------------------------------------------------|



4:24 - 4:34

guitar 1
D|--------------------------------------------------|
A|--------------------------------------------------|
F|--------------------------------------------------|
C|----------10--9--------6--7--6--------------------|
G|--------------------------------------------------|
D|-0--0--0---------0--0-----------0--0--0--0--0000--|
               p.h.
guitar 2
D|--------------------------------------------------|
A|--------------------------------------------------|
F|--------------------------------------------------|
C|--------------------------------------------------|
G|--------------------------------------------------|
D|-0-----0------0-----0-----0-----0-----0-----0000--|


guitar 1
D|--------------------------------------------------|
A|--------------------------------------------------|
F|--------------------------------------------------|
C|----------10--9--------6--7--6--------------------|
G|--------------------------------------------------|
D|-0--0--0---------0--0-----------0--0--0--0--0000--|
               p.h.
guitar 2
D|--------------------------------------------------|
A|--------------------------------------------------|
F|--------------------------------------------------|
C|--------------------------------------------------|
G|--------------------------------------------------|
D|-0-----0------0-----0-----0-----0-----0-----0000--|


guitar 1
D|--------------------------------------------------|
A|--------------------------------------------------|
F|--------------------------------------------------|
C|----------10--9--------6--7--6--------------------|
G|--------------------------------------------------|
D|-0--0--0---------0--0-----------0--0--0--0--0000--|
               p.h.
guitar 2
D|--------------------------------------------------|
A|--------------------------------------------------|
F|--------------------------------------------------|
C|--------------------------------------------------|
G|--------------------------------------------------|
D|-0-----0------0-----0-----0-----0-----0-----0000--|


guitar 1
D|--------------------------------------------------|
A|--------------------------------------------------|
F|--------------------------------------------------|
C|----------10--9--------6--7--6--------------------|
G|--------------------------------------------------|
D|-0--0--0---------0--0-----------0--0--0--0--0000--|
               p.h.
guitar 2
D|--------------------------------------------------|
A|--------------------------------------------------|
F|--------------------------------------------------|
C|--------------------------------------------------|
G|--------------------------------------------------|
D|-0--0--0--0---0--0--0--0--0--0--0--0--0--0--0000--|



4:45 - 4:56

guitar 1
D|--------------------------------------------------|
A|--------------------------------------------------|
F|--------------------------------------------------|
C|----------10--9--------6--7--6--------------------|
G|--------------------------------------------------|
D|-0--0--0---------0--0-----------0--0--0--0--0000--|
               p.h.
guitar 2
D|--------------------------------------------------|
A|--------------------------------------------------|
F|----------12-----------8--9--8--------------------|
C|--------------9-----------------------------------|
G|--------------------------------------------------|
D|-0--0--0---------0--0-----------0--0--0--0--0000--|
               p.h.



last riff

both guitars
D|-----------------------------------------------|
A|-----------------------------------------------|
F|-----------------------------------------------|
C|---1----------1----------1---------2--2--2--2--|
G|---1---2--2---1---2--2---1---2--2--2--2--2--2--|
D|--(0)--------(0)--------(0)--------0--0--0--0--|


************************************

| /   slide up
| \   slide down
| h   hammer-on
| p   pull-off
| ~   vibrato
| +   harmonic
| x   Mute note
| b   Bend
| pb  Pre-bend
| br  Bend release
| pbr Pre-bend release
| brb Bend release bend
| p.h. pinch harmonic
| tp  tremolo picking

************************************

            
            
Suggest correction
Creating personal tab
Creating personal tab
You can edit any tab online and save it as your Personal.

You can edit, replace or remove any tab part or add personal notes – all changes will be seen only by you.

Personal tabs can be accessed anytime from any device, even offline.
Learn more »
Give kudos to tab author, rate the tab!
1 2 3 4 5
comments
print report bad tab
guest
You may want to rate the tab now too:
select rating
Wanna post a correction for this tab? Suggest correction