Oops, an error
Loading. Please wait.

The Light Tab

version 1
version 1

Whole song

Interactive

1,378 views 3 this week
no commentswrite comment
1 2 3 4 5
excellent!
x 4
add to favorites
launch autoscroll
font size
0
reset
how to read this tab
guitar tuner
Autoscroll
slow
fast
+/-
esc
set tempo
stop
Help us to improve Ultimate-Guitar.com Take our survey!
×
Author
Difficulty
Tuning
advanced
C G C F A D
I couldnt believe there were no tabs for this song it is amazing, so I decided to
tab it myself.. its my first tab tell me what you think

Gtr. 1 (Heavy)
[-----------------------------------------------------|
[-----------------------------------------------------|
[-----------------------------------------------------|
[-0-0--0----0-0--0----0-0--0----8-10-10-10-8-10-10-10-|
[-0-0--0-8~-0-0--0----0-0--0-8~-8-10-10-10-8-10-10-10-|
[-0-0--0----0-0--0-8~-0-0--0----8-10-10-10-8-10-10-10-|
  * *  *    * *  *    * *  *    * *  *  *  * *  *  *
Gtr. 1
[-----------------------------------------------------|
[-----------------------------------------------------|
[-----------------------------------------------------|
[-0-0--0----0-0--0----0-0--0--------------------------|
[-0-0--0-8~-0-0--0----0-0--0-8~-8h10-10-10-8-10-10-10-|
[-0-0--0----0-0--0-8~-0-0--0--------------------------|
  * *  *    * *  *    * *  *

This time both guitars

[-----------------------------------------------------|
[-----------------------------------------------------|
[-----------------------------------------------------|
[-0-0--0----0-0--0----0-0--0----8-10-10-10-8-10-10-10-|
[-0-0--0-8~-0-0--0----0-0--0-8~-8-10-10-10-8-10-10-10-|
[-0-0--0----0-0--0-8~-0-0--0----8-10-10-10-8-10-10-10-|
  * *  *    * *  *    * *  *    * *  *  *  * *  *  *

[------------------------------------------------------|
[------------------------------------------------------|
[------------------------------------------------------|
[-0-0--0----0-0--0----0-0--0---------------------------|
[-0-0--0-8~-0-0--0----0-0--0-8~-8h10-10-10-10/12-12-12-|
[-0-0--0----0-0--0-8~-0-0--0---------------------------|
  * *  *    * *  *    * *  *

Chorus Solo 00:21
Gtr. 1
[--------------------------------------------------------|
[-/10-10-10-10--10----10--11-11-11--11-10-11/13-13-13-13-|
[------------------10------------------------------------|
[--------------------------------------------------------|
[--------------------------------------------------------|
[--------------------------------------------------------|

Gtr. 2
[-----------------------------------------------------------|
[-----------------------------------------------------------|
[-----------------------------------------------------------|
[-0-----------------------(0)/-8----(8)/-3-------------(3)/-|
[-0-----------------------(0)/-8----(8)/-3-------------(3)/-|
[-0-----------------------(0)/-8----(8)/-3-------------(3)/-|

Gtr. 1
[---------------------------|
[-11-13-11-10~----11~--8-10-|
[--------------10-----------|
[---------------------------|
[---------------------------|
[---------------------------|

Gtr. 2
[----------------------------|
[----------------------------|
[----------------------------|
[-10--------------------(10)-|
[-10--------------------(10)-|
[-10--------------------(10)-|
                                      Play all that twice
___________________________________________________
00:41
I've lived my life....
[-------------------------------------------------------|
[-------------------------------------------------------|
[-------------------------------------------------------|
[-0-0--0-0---0-0--0-0---0-0--0-0--8-10-10-10-8-10-10-10-|
[-0-0--0-0---0-0--0-0---0-0--0-0--8-10-10-10-8-10-10-10-|
[-0-0--0-0---0-0--0-0---0-0--0-0--8-10-10-10-8-10-10-10-|
  * *  * *   * *  * *   * *  * *  * *  *  *  * *  *  *
[-------------------------------------------------------|
[-------------------------------------------------------|
[-------------------------------------------------------|
[-0-0--0-0---0-0--0-0---0-0--0-0------------------------|
[-0-0--0-0---0-0--0-0---0-0--0-0--8-10-10-10-8-10-10-10-|
[-0-0--0-0---0-0--0-0---0-0--0-0------------------------|
  * *  * *   * *  * *   * *  * *  *          *
Love...
[-------------------------------------------------------|
[-------------------------------------------------------|
[-------------------------------------------------------|
[-0-0--0-0---0-0--0-0---0-0--0-0--8-10-10-10-8-10-10-10-|
[-0-0--0-0---0-0--0-0---0-0--0-0--8-10-10-10-8-10-10-10-|
[-0-0--0-0---0-0--0-0---0-0--0-0--8-10-10-10-8-10-10-10-|
  * *  * *   * *  * *   * *  * *  * *  *  *  * *  *  *

[---------------------------------------------------------|
[---------------------------------------------------------|
[---------------------------------------------------------|
[-0-0--0-0---0-0--0-0---0-0--0-0--------------------------|
[-0-0--0-0---0-0--0-0---0-0--0-0--8h10-10-10-10/12-12-12--|
[-0-0--0-0---0-0--0-0---0-0--0-0--------------------------|
  * *  * *   * *  * *   * *  * *

Now I see..
  I feel alive..
Gtr. 1
[--------------------------------------------------------|
[-/10-10-10-10--10----10--11-11-11--11-10-11/13-13-13-13-|
[------------------10------------------------------------|
[--------------------------------------------------------|
[--------------------------------------------------------|
[--------------------------------------------------------|

Gtr. 2
[-----------------------------------------------------------|
[-----------------------------------------------------------|
[-----------------------------------------------------------|
[-0-----------------------(0)/-8----(8)/-3-------------(3)/-|
[-0-----------------------(0)/-8----(8)/-3-------------(3)/-|
[-0-----------------------(0)/-8----(8)/-3-------------(3)/-|

Gtr. 1
[---------------------------|
[-11-13-11-10~----11~--8-10-|
[--------------10-----------|
[---------------------------|
[---------------------------|
[---------------------------|

Gtr. 2
[----------------------------|
[----------------------------|
[----------------------------|
[-10--------------------(10)-|
[-10--------------------(10)-|
[-10--------------------(10)-|     Play twice again
_____________________________________

1:23
[-------------------------------------------------------|
[-------------------------------------------------------|
[-------------------------------------------------------|
[-0-0--0-0---0-0--0-0---0-0--0-0--8-10-10-10-8-10-10-10-|
[-0-0--0-0---0-0--0-0---0-0--0-0--8-10-10-10-8-10-10-10-|
[-0-0--0-0---0-0--0-0---0-0--0-0--8-10-10-10-8-10-10-10-|
  * *  * *   * *  * *   * *  * *  * *  *  *  * *  *  *
[-------------------------------------------------------|
[-------------------------------------------------------|
[-------------------------------------------------------|
[-0-0--0-0---0-0--0-0---0-0--0-0------------------------|
[-0-0--0-0---0-0--0-0---0-0--0-0--8-10-10-10-8-10-10-10-|
[-0-0--0-0---0-0--0-0---0-0--0-0------------------------|
  * *  * *   * *  * *   * *  * *  *          *
Play twice
_________________________________________________
Break your chains..
[-------------------------------------------------------|
[-------------------------------------------------------|
[-------------------------------------------------------|
[-0-0--0-0---0-0--0-0---0-0--0-0--8-10-10-10-8-10-10-10-|
[-0-0--0-0---0-0--0-0---0-0--0-0--8-10-10-10-8-10-10-10-|
[-0-0--0-0---0-0--0-0---0-0--0-0--8-10-10-10-8-10-10-10-|
  * *  * *   * *  * *   * *  * *  * *  *  *  * *  *  *

[---------------------------------------------------------|
[---------------------------------------------------------|
[---------------------------------------------------------|
[-0-0--0-0---0-0--0-0---0-0--0-0--------------------------|
[-0-0--0-0---0-0--0-0---0-0--0-0--8h10-10-10-10/12-12-12--|
[-0-0--0-0---0-0--0-0---0-0--0-0--------------------------|
  * *  * *   * *  * *   * *  * *

Chorus Again
Gtr. 1
[--------------------------------------------------------|
[-/10-10-10-10--10----10--11-11-11--11-10-11/13-13-13-13-|
[------------------10------------------------------------|
[--------------------------------------------------------|
[--------------------------------------------------------|
[--------------------------------------------------------|

Gtr. 2
[-----------------------------------------------------------|
[-----------------------------------------------------------|
[-----------------------------------------------------------|
[-0-----------------------(0)/-8----(8)/-3-------------(3)/-|
[-0-----------------------(0)/-8----(8)/-3-------------(3)/-|
[-0-----------------------(0)/-8----(8)/-3-------------(3)/-|

Gtr. 1
[---------------------------|
[-11-13-11-10~----11~--8-10-|
[--------------10-----------|
[---------------------------|
[---------------------------|
[---------------------------|

Gtr. 2
[----------------------------|
[----------------------------|
[----------------------------|
[-10--------------------(10)-|
[-10--------------------(10)-|
[-10--------------------(10)-|
                                      Play all that twice
___________________________________________________
Bridge? 2:20
                                                  Now I see...
[--------------------------------------------------------|
[--------------------------------------------------------|
[--------------------------------------------------------|
[-----0-(0)--------8--------------10------------8---10---|
[----------------8---8~--------10----10~------8---8----8-|
[-0-7---7~--8--8--------10--10-----------8--8------------|

[--------------------------------------------------------|
[--------------------------------------------------------|
[--------------------------------------------------------|
[-----0-(0)--------8--------------10------------8---10---|
[----------------8---8~--------10----10~------8---8----8-|
[-0-7---7~--8--8--------10--10-----------8--8------------|

[---------------------------------------------------------------|
[---------------------------------------------------------------|
[---------------------------------------------------------------|
[-0-0--0-0---0-0--0-0(0)--8-8--8-8---8-8--8-8(8)--10-10--10-10--|
[-0-0--0-0---0-0--0-0(0)--8-8--8-8---8-8--8-8(8)--10-10--10-10--|
[-0-0--0-0---0-0--0-0(0)--8-8--8-8---8-8--8-8(8)--10-10--10-10--|
  * *  * *   * *  *       * *  * *   * *  *       *  *   *  *
[---------------------------------------|
[---------------------------------------|
[---------------------------------------|
[-10-10--10-10(10)-8-8--8-8(8)-10-10-10-|
[-10-10--10-10(10)-8-8--8-8(8)-10-10-10-|
[-10-10--10-10(10)-8-8--8-8(8)-10-10-10-|
  *  *   *         * *  *      *  *  *

[---------------------------------------------------------|
[---------------------------------------------------------|
[---------------------------------------------------------|
[-0-0--0-0--0-0--0-0---0-0--0-0--0-0--0-0---0-0--0-0--0-0-|
[-0-0--0-0--0-0--0-0---0-0--0-0--0-0--0-0---0-0--0-0--0-0-|
[-0-0--0-0--0-0--0-0---0-0--0-0--0-0--0-0---0-0--0-0--0-0-|
  * *  * *  * *  * *   * *  * *  * *  * *   * *  * *  * *
Last Chorus
Gtr. 1
[--------------------------------------------------------|
[-/10-10-10-10--10----10--11-11-11--11-10-11/13-13-13-13-|
[------------------10------------------------------------|
[--------------------------------------------------------|
[--------------------------------------------------------|
[--------------------------------------------------------|

Gtr. 2
[-----------------------------------------------------------|
[-----------------------------------------------------------|
[-----------------------------------------------------------|
[-0-----------------------(0)/-8----(8)/-3-------------(3)/-|
[-0-----------------------(0)/-8----(8)/-3-------------(3)/-|
[-0-----------------------(0)/-8----(8)/-3-------------(3)/-|

Gtr. 1
[---------------------------|
[-11-13-11-10~----11~--8-10-|
[--------------10-----------|
[---------------------------|
[---------------------------|
[---------------------------|

Gtr. 2
[----------------------------|
[----------------------------|
[----------------------------|
[-10--------------------(10)-|
[-10--------------------(10)-|
[-10--------------------(10)-|     Play twice again
_____________________________________

Ending
[-------------------------------------------------------|
[-------------------------------------------------------|
[-------------------------------------------------------|
[-0-0--0-0--0-0--0-0------------------------------------|
[-0-0--0-0--0-0--0-0------------------------------------|
[-0-0--0-0--0-0--0-0------------------------------------|
  * *  * *  * *  * *
Suggest correction
comments
print report bad tab
guest
You may want to rate the tab now too:
select rating
Please do not post tabs as comments. Select "correction" instead!