Oops, an error
Loading. Please wait.

Fall Into You Bass Tab

267 views 1 this week
no commentswrite comment
1 2 3 4 5
3 more votes to show rating
add to favorites
launch autoscroll
font size
0
reset
guitar tuner
Autoscroll
slow
fast
+/-
esc
set tempo
stop
Help us to improve Ultimate-Guitar.com Take our survey!
×
Author
Difficulty
intermediate
Tabbed by Dan Firmin
p=pull off
h=hard on
http://www.last.fm/music/Soulstice

G-|-----2--4------------------|   \\  //      //===\\    
D-|---------------------------|    \\//      ||     || 
A-|-----------2---------------|    //\\       \\   //   
E-|---------------------------|   //  \\       \\=//
                                             //   \\   
                                            ||     ||       
                                             \\====/


G-|-----2--4------------------|  \\  //      ||    ||
D-|---------------------------|   \\//       ||    ||
A-|-----------2---------------|   //\\       ========
E-|--------------------------2|  //  \\            ||
                                                   ||
                                                   ||
                                                    


G-|---2--4---------------------------------------|
D-|----------------4p2--------2h4----------------|
A-|----------2---------2-2-----------------------|
E-|--------------------------------2------3----33|

G-|222---4---------------------------------|
D-|----------------4p2--------2h4----------|
A-|----------2---------2-2-----------------|
E-|----------------------------------------|



G-|-----2--4------------------|  \\  //    //===\\
D-|---------------------------|   \\//    ||     ||
A-|-----------2---------------|   //\\     \\   //
E-|--------------------------2|  //  \\     \\=//
                                           //   \\
                                          ||     ||
                                           \\====/
*PAUSE*

G-|---2--4---------------------------------------|
D-|----------------4p2--------2h4----------------|
A-|----------2---------2-2-----------------------|
E-|--------------------------------2------3----33|




G-|222--4----------------------------------------|  \\  //  ||=====
D-|---------------4p2--------2p4-----------------|   \\//   ||
A-|----------2---------2-2-----------------------|   //\\   ||======\\ 
E-|--------------------------------2------3----33|  //  \\          ||
                                                            =======//
                                                          
G-|222--4--------| G-|-----2--4------------------|  \\  //    =======//
D-|--------------| D-|---------------------------|   \\//           //
A-|---------2----| A-|-----------2---------------|   //\\          //  
E-|-------------2| E-|--------------------------2|  //  \\        // 
                                                                 //   
*PAUSE*

G-|---2--4---------------------------------------|
D-|----------------4p2--------2h4----------------|
A-|----------2---------2-2-----------------------|
E-|--------------------------------2------3----33|

G-|222--4----------------------------------------|  \\  //  //===\\
D-|---------------4p2--------2p4-----------------|   \\//        //
A-|----------2---------2-2-----------------------|   //\\    |||||
E-|--------------------------------2------3----33|  //  \\       \\
                                                            \\===//
  


G-|222--4-----|
D-|-----------|
A-|----------2|
E-|-----------|

Suggest correction
Give kudos to tab author, rate the tab!
1 2 3 4 5
comments
print report bad tab
guest
You may want to rate the tab now too:
select rating
Wanna post a correction for this tab? Suggest correction