Oops, an error
Loading. Please wait.

Summer In The City Tab

1,222 views 1 this week
no commentswrite comment
1 2 3 4 5
3 more votes to show rating
add to favorites
launch autoscroll
font size
0
reset
how to read this tab
guitar tuner
Autoscroll
slow
fast
+/-
esc
set tempo
stop
Help us to improve Ultimate-Guitar.com Take our survey!
×
Author
Capo
3rd fret
-------------------------------------------------------------------------------
			     SUMMER IN THE CITY - Soulvation
-------------------------------------------------------------------------------
Tabbed by:Paula


Tuning: standard tuning, capo on 3rd

This is the guitar solo in the middle of the song. 



INTRO ~NO RHYTHM YET, JUST STRIKE THE CHORDS

2.02 (time in song at this point)

E-----2------3------0------0-----|-----2------3------X-0--0-X-0-2--|-----2
B-----0------3------1------3-----|-----0------3------3---1--3---3--|-----0
G-----0------0------0------2-----|-----0------0------0------2---2--|-----0
D-----0------2------2------0-----|-----0------2------2------0---0--|-----0
A-----2------3------0------X-----|-----2------3------0------X---X--|-----2
E-----0------3------0------X-----|-----0------3------0------X---X--|-----0


FERMATE (WAIT A LITTLE)


~PUT RHYTHM IN THE CORDS FROM HERE ON. THE RHYTHM (&TEMPO LATER ON) KEEPS BUILDING UNTILL THE END

2.18

E-----2------3------0------0--2--|-----2------3------0------0-----|
B-----0------3------1------3--3--|-----0------3------1/3\1--3-----|
G-----0------0------0------2--2--|-----0------0------0------2-----|
D-----0------2------2------0--0--|-----0------2------2/4\2--0-----|
A-----2------3------0------X--X--|-----2------3------0------X-----|
E-----0------3------0------X--X--|-----0------3------0------X-----|

2.33

E-----2------3------0------0--2--|-----2------3------0------0-----|
B-----0------3------1/3\1--3--3--|-----0------3------1------3-----|
G-----0------0------0------2--2--|-----0------0------0------0-----|
D-----0------2------2/4\2--0--0--|-----0------2------2------4-----|
A-----2------3------0------X--X--|-----2------3------0------0-----|
E-----0------3------0------X--X--|-----0------3------0------0-----|

2.48

E-----0------0------0------0-----|-----0------0------0------0-----|
B-----5----5/7------1----1/3-----|-----5----5/7------1------3-----|
G-----0------0------0------0-----|-----0------0------0------0-----|
D-----5----5/7------2----2/4-----|-----5----5/7------2------4-----|
A-----0------0------3----3/5-----|-----5----5/7------3------5-----|
E-----0------0------0------0-----|-----0------0------0------0-----|

3.03

E-----0------0------0------0-----|-----0------0------2------3-----|
B-----5------7------1------3-----|-----5------7------0------3-----|
G-----0------0------0------0-----|-----0------0------0------0-----|
D-----5------7------2------4-----|-----5------7------0------2-----|
A-----5------7------3------5-----|-----5------7------2------3-----|
E-----0------0------0------0-----|-----0------0------0------3-----|

3.18
     MUTE	  MUTE
E-----0------0------2------3-----|-----0------0------2------3-----|
B-----1------3------0------3-----|-----1------3------0------3-----|
G-----0------2------0------0-----|-----0------2------0------0-----|
D-----2------0------0------2-----|-----2------0------0------2-----|
A-----0------X------2------3-----|-----0------X------2------3-----|
E-----0------X------0------3-----|-----0------X------0------3-----|

3.32
					 STRIKE ONCE
E-----0------0------2------3-----|-----0------0--	SUMMER IN THE CITY... TRUMPET SOLO
B-----1------3------0------3-----|-----1------3--
G-----0------2------0------0-----|-----0------2--
D-----2------0------0------2-----|-----2------0--
A-----0------X------2------3-----|-----0------X--
E-----0------X------0------3-----|-----0------X--


GOOD LUCK!
Suggest correction
Give kudos to tab author, rate the tab!
1 2 3 4 5
comments
print report bad tab
guest
You may want to rate the tab now too:
select rating
Wanna post a correction for this tab? Suggest correction