Oops, an error
Loading. Please wait.
We have Chord Pro version of Edelweiss.
It's the closest thing you can get to the original song and it has interactive parts. Check out the tab »
×
46,994 views 33 this week
1 commentread comment
1 2 3 4 5
x 6
add to favorites
×
Save as Personal and add changes to this tab that will be seen only by you. Learn more ›
×
You can save this tab as Personal to edit and correct it or add notes. All changes will be seen only by you. Learn more »
launch autoscroll
font size
0
reset
how to read this tab
guitar tuner
edit
Autoscroll
slow
fast
+/-
esc
set tempo
stop
Author
Still working on the proper chords, will update later but here is the guitar part that follows
the voice line... one guitar can play "treble" and the other bass- or go ahead and blend 
two for a fuller sound on one guitar.

Chords are above the words

Bb    F       Bb  F  Eb Bb                  Eb  F
Edelweiss,   edelweiss, Every morning you greet me - 
Small and white,  clean bright, You look happy to meet me


e|--------8------6------------------1--3--1--------------------------------------------|
B|-----6------------6--4--3-3-3--4-----------------------------------------------------|
G|--7----------------------------------------------------------------------------------|
D|-------------------------------------------------------------------------------------|
A|-------------------------------------------------------------------------------------|
E|-------------------------------------------------------------------------------------|
Bass
e|---------------------------------------------------------------------------------------|
B|---------------------------------------------------------------------------------------|
G|-------5---3---------------------------------------------------------------------------|
D|----3---------3--1--0-0-0--1--3--5--3--------------------------------------------------|
A|-5-------------------------------------------------------------------------------------|
E|---------------------------------------------------------------------------------------|

C          F             Bb              Gm          C
Blossom of snow may you bloom and grow, Bloom and grow, forever

e|--8-----5----------------6---3--6--8--6--5----|
B|-----6-----8---6---3--6---------------------6-----|
G|-----------------------------------------------|
D|-----------------------------------------------|
A|-----------------------------------------------|
E|-----------------------------------------------|
Bass:
e|---------------------------------------------|
B|---------------------------------------------|
G|-------2--------------3------3--5---3--2-----|
D|----3-----5--3--0--3------5---------------3--|
A|--3------------------------------------------|
E|---------------------------------------------|

Next two lines "Edelweiss, Edelweiss
Bless my homeland forever" follow the same thing as above.

            
            
Suggest correction
Creating personal tab
Creating personal tab
You can edit any tab online and save it as your Personal.

You can edit, replace or remove any tab part or add personal notes – all changes will be seen only by you.

Personal tabs can be accessed anytime from any device, even offline.
Learn more »
comments
print report bad tab
1 comment total.
0 reply
urchin03 10 Apr 06, 2006 08:09 PM

cool picking

guest
You may want to rate the tab now too:
select rating
Wanna post a correction for this tab? Suggest correction