Oops, an error
Loading. Please wait.

4Th Of July Tab

version 1
version 1

Whole song

Interactive

53,027 views 114 this week
1 commentread comment
1 2 3 4 5
accurate
x 10
add to favorites
launch autoscroll
font size
0
reset
how to read this tab
guitar tuner
Tab Pro tools
  • play this tab
  • loop segment
  • change instrument
  • show fretboard
  • metronome
×
Best way to learn
"4th Of July"
Autoscroll
slow
fast
+/-
esc
set tempo
stop
Contributor
Difficulty
novice
                                 4th Of July-soundgarden
Tabbed by: S/ash

Tuning: E-E
        B-B
        G-G
        D-C
        A-F
        E-C
Intro: 


E||------------------------------------------|--------------|
B||------------------------------------------|--------------|
G||------------------------------------------|--------------|
C||------------------------------------------|--------------|
F||---3---3--3------3--3--3-----2--2--2--2---|--2--2--2--2--|
C||---3---3--3--2---1--1--1--0--2--2--2--2---|--2--2--2--2--|

Verse: 
lets call this riff a.

E||-----------------------------------------------------------------|
B||-----------------------------------------------------------------|
G||-----------------------------------------------------------------|
C||-----------------------------------------------------------------|
F||--3---3--3------3--3---3-----2--2---2--2--5--5--5--4~~~3---3--3--|
C||--3---3--3--2---1--1---1--0--2--2---2--2--3--3--3------3---3--3--|

E||----------------------------------|
B||----------------------------------|
G||----------------------------------|
C||----------------------------------|
F||------3---3---3------2---2--2--2--|
C||--2---1---1---1---0--2---2--2--2--|

Chorus riff: 
lets call this riff b

E||-------------------------------------------------------------|
B||-------------------------------------------------------------|
G||-------------------------------------------------------------|
C||-------------------------------------------------------------|
F||--5---5---5---4-----1---1-----1--------------------7P5--5----|
C||--3---3---3---------1---1-----1-----2-----0----0-------------|

E||--------------------------------------------------------------------|
B||--------------------------------------------------------------------|
G||--------------------------------------------------------------------|
C||--------------------------------------------------------------------|
F||--7P5--7\5---5---5---5---4---1---1-----1--------------------7P5--5--|
C||-------------3---3---3-------1---1-----1-----2-----0----0-----------|

and this will be riff c:


E||-----------------------------------|
B||-----------------------------------|
G||-----------------------------------|
C||-----------------------------------|
F||--2--------2--------2--------5b----|
C||--2--------2--------2--------------|

and riff d: 
E||--------------------------------------------------------|
B||--------------------------------------------------------|
G||----------------------|---------------------------------|
C||--2------2--2P0-------|---------------------------------|
F||--2------2--2P0--5----|-----------------------------5B--|
C||-----------------5----|----5--4----3B--3B--3B-----------|



E||----------------------------------------------------------|
B||----------------------------------------------------------|
G||----------------------|-----------------------------------|
C||---2------2--2P0------|-----------------------------------|
F||---2------2--2P0--5---|-----------------7B-----7B-----5B--|
C||------------------5---|-----5--4---3B---------------------|

And then it goes back to the verse and chorus some more

here is that little thing before the guitar solo: 

E||----------------------|
B||----------------------|
G||----------------------|
C||----------------------|
F||---------7B--7--------|
C||--3-------------------|

The high part of the guitar solo:
 
E||-------------------------------23---23---23---23--20-------|
B||--22B-----20---23B-----------------------------------------|
G||--------------------------22-------------------------------|
C||-----------------------------------------------------------|
F||-----------------------------------------------------------|
C||-----------------------------------------------------------|

E||---------------------------------------------------------------------------|
B||--22B-----20---23B--------23P20----22B-------20^22P20--20-----20--22B--20--|
G||-----------------------------------------------------------22--------------|
C||---------------------------------------------------------------------------|
F||---------------------------------------------------------------------------|
C||---------------------------------------------------------------------------|

E||----------------------------------------------------------------------|
B||--22B-----20---23B---------------20--20---20----20---18---20---18\15--|
G||----------------------------------------------------------------------|
C||----------------------------------------------------------------------|
F||----------------------------------------------------------------------|
C||----------------------------------------------------------------------|

E||----------------------------------------------------------------------|
B||------------------------------23--------------------------------------|
G||--14B-----12------15B-------------22B----20^22P20-------22--20^22P20--|
C||----------------------------------------------------------------------|
F||----------------------------------------------------------------------|
C||----------------------------------------------------------------------|


E||-----------------------------|
B||----------------11-----------|
G||--19----19\------------------|
C||-----------------------------|
F||-----------------------------|
C||-----------------------------|


outro type thing: 
E||-------------------------------20------18------------------|
B||--22---------20---23------------------------20-------------|
G||-----------------------------------------------------------|
C||-----------------------------------------------------------|
F||-----------------------------------------------------------|
C||-----------------------------------------------------------|

Done!
comments
print report bad tab
1 comment total.
+1 reply
metalhead805 wrote on February 10 2009, 07:28 pm

i think this the best tab for the song good job

I want to post or [tab]
guest
You may want to rate the tab now too:
select rating
Please do not post tabs as comments. Select "correction" instead!