Oops, an error
Loading. Please wait.

4Th Of July bass

version 2
version 2

Whole song

  • The bass in the original song is very difficult to... Show more

Interactive

82 views 1 this week
no commentswrite comment
1 2 3 4 5
3 more votes to show rating
add to favorites
×
Save as Personal and add changes to this tab that will be seen only by you. Learn more ›
×
You can save this tab as Personal to edit and correct it or add notes. All changes will be seen only by you. Learn more »
launch autoscroll
font size
0
reset
guitar tuner
edit
Autoscroll
slow
fast
+/-
esc
set tempo
stop
About this tab version
The bass in the original song is very difficult to ear, so i take the sound from this video https://www.youtube.com/watch?v=9NXD-PAQEBg Maybe tempo its not correct, i am novice in that aspect. Enjoy and any correction is welcome. Thanks. Was this info helpful? Yes No
[Intro] 
(00:07 - 00:27)
F|------------------------------|
C|---12b-11~~~10b---------------|
G|--------------12b~~~~~~12b----|
C|------------------------------|(x3)

[Verse 1] 
(00:31 - 01:13)
F|----------------------------------------|----------------------------------|
C|----------------------------------------|----------------------------------|
G|----------------------------------3b----|----------------------------------|
C|-3-3-3-3-2-1-1-1-1-2-2-2-2-3-3-3-3--3-3-|-3-3-3-3-2-1-1-1-1--2--2--2--2----|(x2)

F|------------------------------------|--------------------------------------|
C|------------------------------------|--------------------------------------|
G|-----------------------4/5b\3-3h5-3-|----------------------4/5b\3--(3)-----|
C|-3-3-3-3-2-1-1-1-1-2-3--------------|-3-3-3-3-2-1-1-1-1-2-3----------------|

[Verse 2] 
(01:15 - 02:07)
F|----------------------------------------|----------------------------------|
C|----------------------------------------|----------------------------------|
G|----------------------------------3b----|----------------------------------|
C|-3-3-3-3-2-1-1-1-1-2-2-2-2-3-3-3-3--3-3-|-3-3-3-3-2-1-1-1-1--2--2--2--2----|(x2)

F|--------------------------------------------|
C|--------------------------------------------|
G|-----------------------4/5b\3-3h5-3---------|
C|-3-3-3-3-2-1-1-1-1-2-3----------------------|(x2)

F|----------------------------------------|----------------------------------|
C|----------------------------------------|----------------------------------|
G|----------------------------------3b----|----------------------------------|
C|-3-3-3-3-2-1-1-1-1-2-2-2-2-3-3-3-3--3-3-|-3-3-3-3-2-1-1-1-1--2--2--2--2----|

[Chorus] 
(02:08 - 02:35)
F|----------------------------------|----------------------------------------|
C|----------------------------------|----------------------------------------|
G|--3h5-3---------------------------|-3h5-3----------------------5h7-5-(5)---|
C|--------7-7-5-5--4-3-3h5-3/5-5-5b-|------7-7-5-5--4-3-3h5-3----------------|

[Bridge] 
(02:35 - 02:56)
F|-----------------------------------|---------------------------------------|
C|-----------------------------------|---------------------------------------|
G|-----------------------5b-3b-3h5-3-|---------------------5b-3b-3h5-3-5-----|
C|-3-3-3-3-2-1-1-1-1-2-3-------------|-3-3-3-3-2-1-1-1-1-2-3-----------------|

[Solo Guitar] 
(02:57 - 03:38)
F|-----------------------------|
C|-----------------------------|
G|-----------------------------|
C|--7-7-5-5--4-3-3h5-3/5-5-5b--|(x3)

F|-----------------------------------| |--------------| 
C|-----------------------------------| |--------------|
G|-----------------------------------| |--------------|
C|--7-7-5-5--4-3-3-3-3-2-1-1-1-1-----| |--2--------2--|(x8)

[Interlude] 
(03:45 - 03:50)
F|------------------------------|
C|---12b-11~~~10b---------------|
G|--------------12b~~~~~~12b----|
C|------------------------------|

[Verse 1] 
(03:51 - 04-17)
F|----------------------------------------|----------------------------------|
C|----------------------------------------|----------------------------------|
G|----------------------------------3b----|----------------------------------|
C|-3-3-3-3-2-1-1-1-1-2-2-2-2-3-3-3-3--3-3-|-3-3-3-3-2-1-1-1-1--2--2--2--2----|(x2)

[Chorus] 
(04:17 - 04:44)
F|----------------------------------|-----------------------------------------|
C|----------------------------------|-----------------------------------------|
G|--3h5-3---------------------------|-3h5-3----------------------5h7-5-(5)----|
C|--------7-7-5-5--4-3-3h5-3/5-5-5b-|-----7-7-5-5--4-3-3h5-3------------------|(x2)

[Outro] 
(04:44 - 05:06)
F|-----------------------------------| |--------------| 
C|-----------------------------------| |--------------|
G|-----------------------------------| |--------------|
C|--7-7-5-5--4-3-3-3-3-2-1-1-1-1-----| |--2--------2--|(x8)


************************************

| b    Bend
| ~    Vibrato
| (n)  Ghost note
| h    Hammer-on
| /    Slide up

************************************

            
            
Suggest correction
Creating personal tab
Creating personal tab
You can edit any tab online and save it as your Personal.

You can edit, replace or remove any tab part or add personal notes – all changes will be seen only by you.

Personal tabs can be accessed anytime from any device, even offline.
Learn more »
Give kudos to tab author, rate the tab!
1 2 3 4 5
comments
print report bad tab
guest
You may want to rate the tab now too:
select rating
Wanna post a correction for this tab? Suggest correction