Oops, an error
Loading. Please wait.

An Unkind Bass Tab

version 1
version 1

Whole song

Interactive

130 views 1 this week
no commentswrite comment
1 2 3 4 5
please rate
add to favorites
launch autoscroll
font size
0
reset
guitar tuner
Tab Pro tools
  • play this tab
  • loop segment
  • change instrument
  • show fretboard
  • metronome
Autoscroll
slow
fast
+/-
esc
set tempo
stop
Contributor
Song: An Unkind
Artist: Soundgarden
Album: Down On The Upside
Tabbed by: Jase Warner (www.erikk.co.uk)

Standard Tuning (E,A,D,G)

First Verse:

G|-------------|-------------|-------------|--------------|
D|*7h9---------|-7h9---------|-7h9--9-9-9--|-9-7---------*|
A|*-----9-9--9-|------9-9--9-|-------------|------9-9--9-*|
E|-------------|-------------|-------------|--------------|

G|-------------|-------------|-------------|--------------|
D|*7h9---------|-7h9---------|-7h9--9-9-9--|-9-7---------*|
A|*-----9-9--9-|------9-9--9-|-------------|------9-9--9-*|
E|-------------|-------------|-------------|--------------|

G|-------------|-------------|-------------|--------------|
D|*7h9---------|-7h9---------|-7h9--9-9-9--|-9-7---------*|
A|*-----9-9--9-|------9-9--9-|-------------|------9-9--9-*|
E|-------------|-------------|-------------|--------------|

G|-------------|-------------|-------------|--------------|
D|*7h9---------|-7h9---------|-7h9--9-9-9--|-9-7---------*|
A|*-----9-9--9-|------9-9--9-|-------------|------9-9--9-*|
E|-------------|-------------|-------------|--------------|

G|-------------|-------------|-------------|--------------|
D|*7h9---------|-7h9---------|-7h9--9-9-9--|-9-7---------*|
A|*-----9-9--9-|------9-9--9-|-------------|------9-9--9-*|
E|-------------|-------------|-------------|--------------|

G|-------------|-------------|-------------|--------------|
D|*7h9---------|-7h9---------|-7h9--9-9-9--|-9-7---------*|
A|*-----9-9--9-|------9-9--9-|-------------|------9-9--9-*|
E|-------------|-------------|-------------|--------------|

Pre-Chorus:

G|-------------|-------------|------------|-----------|
D|*9--7-9-7-9-7|-9-7-9-7-9-7-|9-9-9-9-9-7-|----------*|
A|*------------|-------------|------------|9----9--9-*|
E|-------------|-------------|------------|-----------|

Chorus:

G|----------------|----------------|----------------|------------|
D|*---------------|----------------|----------------|------------|
A|*5-4----0-2-----|----------------|-5-4----0-2--0~-|--#--------*|
E|------2------0~-|--0~------------|------2---------|----0~------|

G|----------------|----------------|----------------|------------|
D|*---------------|----------------|----------------|------------|
A|*5-4----0-2-----|----------------|-5-4----0-2--0~-|--#--------*|
E|------2------0~-|--0~------------|------2---------|----0~------|

Second Verse:

G|-------------|-------------|-------------|--------------|
D|*7h9---------|-7h9---------|-7h9--9-9-9--|-9-7---------*|
A|*-----9-9--9-|------9-9--9-|-------------|------9-9--9-*|
E|-------------|-------------|-------------|--------------|

G|-------------|-------------|-------------|--------------|
D|*7h9---------|-7h9---------|-7h9--9-9-9--|-9-7---------*|
A|*-----9-9--9-|------9-9--9-|-------------|------9-9--9-*|
E|-------------|-------------|-------------|--------------|

G|-------------|-------------|-------------|--------------|
D|*7h9---------|-7h9---------|-7h9--9-9-9--|-9-7---------*|
A|*-----9-9--9-|------9-9--9-|-------------|------9-9--9-*|
E|-------------|-------------|-------------|--------------|

G|-------------|-------------|-------------|--------------|
D|*7h9---------|-7h9---------|-7h9--9-9-9--|-9-7---------*|
A|*-----9-9--9-|------9-9--9-|-------------|------9-9--9-*|
E|-------------|-------------|-------------|--------------|

G|-------------|-------------|-------------|--------------|
D|*7h9---------|-7h9---------|-7h9--9-9-9--|-9-7---------*|
A|*-----9-9--9-|------9-9--9-|-------------|------9-9--9-*|
E|-------------|-------------|-------------|--------------|

G|-------------|-------------|-------------|--------------|
D|*7h9---------|-7h9---------|-7h9--9-9-9--|-9-7---------*|
A|*-----9-9--9-|------9-9--9-|-------------|------9-9--9-*|
E|-------------|-------------|-------------|--------------|


Pre-Chorus:

G|-------------|-------------|------------|-----------|
D|*9--7-9-7-9-7|-9-7-9-7-9-7-|9-9-9-9-9-7-|----------*|
A|*------------|-------------|------------|9----9--9-*|
E|-------------|-------------|------------|-----------|

Chorus:

G|----------------|----------------|----------------|------------|
D|*---------------|----------------|----------------|------------|
A|*5-4----0-2-----|----------------|-5-4----0-2--0~-|--#--------*|
E|------2------0~-|--0~------------|------2---------|----0~------|

G|----------------|----------------|----------------|------------|
D|*---------------|----------------|----------------|------------|
A|*5-4----0-2-----|----------------|-5-4----0-2--0~-|--#--------*|
E|------2------0~-|--0~------------|------2---------|----0~------|

Break:

G|-------------|-------------|-------------|--------------|
D|*7h9---------|-7h9---------|-7h9--9-9-9--|-9-7---------*|
A|*-----9-9--9-|------9-9--9-|-------------|------9-9--9-*|
E|-------------|-------------|-------------|--------------|

G|-------------|-------------|-------------|--------------|
D|*7h9---------|-7h9---------|-7h9--9-9-9--|-9-7---------*|
A|*-----9-9--9-|------9-9--9-|-------------|------9-9--9-*|
E|-------------|-------------|-------------|--------------|

G|-------------|-------------|-------------|--------------|
D|*7h9---------|-7h9---------|-7h9--9-9-9--|-9-7---------*|
A|*-----9-9--9-|------9-9--9-|-------------|------9-9--9-*|
E|-------------|-------------|-------------|--------------|

G|-------------|-------------|-------------|--------------|
D|*7h9---------|-7h9---------|-7h9--9-9-9--|-9-7---------*|
A|*-----9-9--9-|------9-9--9-|-------------|------9-9--9-*|
E|-------------|-------------|-------------|--------------|

Chorus:

G|----------------|----------------|----------------|------------|
D|*---------------|----------------|----------------|------------|
A|*5-4----0-2-----|----------------|-5-4----0-2--0~-|--#--------*|
E|------2------0~-|--0~------------|------2---------|----0~------|

G|----------------|----------------|----------------|------------|
D|*---------------|----------------|----------------|------------|
A|*5-4----0-2-----|----------------|-5-4----0-2--0~-|--#--------*|
E|------2------0~-|--0~------------|------2---------|----0~------|

Ending:

G|--------------|--------------|--------------|------------|
D|*7h9----------|-------7~-----|-7h9----------|-------7~--*|
A|*-----9-9-----|-9-9----------|------9-9-----|-9-9-------*|
E|--------------|--------------|--------------|------------|

G|--------------|--------------|--------------|------------|
D|*7h9----------|-------7~-----|-7h9----------|---9-------*|
A|*-----9-9-----|-9-9----------|------9-9-----|-9----9~---*|
E|--------------|--------------|--------------|------------|
comments
We did not receive enough feedback on this tab! Please rate:
print report bad tab
1 2 3 4 5
I want to post or [tab]
guest
You may want to rate the tab now too:
select rating
Please do not post tabs as comments. Select "correction" instead!