Oops, an error
Loading. Please wait.

Applebite Tab

version 2
version 2

Whole song

Interactive

1,790 views 6 this week
1 commentread comment
1 2 3 4 5
x 4
add to favorites
launch autoscroll
font size
0
reset
how to read this tab
guitar tuner
Autoscroll
slow
fast
+/-
esc
set tempo
stop
Help us to improve Ultimate-Guitar.com Take our survey!
×
Author
Difficulty
Tuning
intermediate
D# G# C# F# A# D#
Applebite by Soundgarden
Written by Matt Cameron (Pearl Jam's Current Drummer)
From "Down on the Upside" Album

Standard Tuning

Intro - w/ slapback echo & studio effects
e|---------|---------|----------|-----------|
B|----4----|---------|----------|-----------|
G|---------|----0----|----2-----|-----------|
D|--3------|--2------|--0-------|-----------|
A|---------|---------|----------|-----------|
E|---------|---------|----------|-----------|
  Echo will sound after each 2nd note if delay time set right


Riff 1 - play 3x
Let notes ring this time w/ reverb only
e|---------|--------|-----------|-----------|
B|----4----|--------|-----------|-----------|
G|---------|----0---|-----2-----|-----------|
D|--3------|--2-----|---0-------|-----------|
A|---------|--------|-----------|-----------|
E|---------|--------|-----------|-----------|

Riff 2 - 
e|---------|--------|-----------|-----------|
B|---------|--------|-----------|-----------|
G|----4----|----0---|-----------|-----2-----|
D|---------|--------|----3------|-----------|
A|--4------|--3-----|--1--------|---0-------|
E|---------|--------|-----------|-----------|

2nd time through Riff 1, the notes are doubled by a moog synth

2nd Time through Riff 2, distortion is added to one guitar while other is clean tone

Towards end, riff 2 repeats several times

Riff 1 plays 4x at end
Suggest correction
comments
print report bad tab
1 comment total.
+1 reply
xLENAx2012 10 Nov 26, 2011 12:04 PM

e|---------|---------|----------|
B|----4----|---------|----------|
G|---------|----0----|----2-----|
D|--3------|--2------|--0-------|
A|---------|---------|----------|
E|---------|---------|----------|

guest
You may want to rate the tab now too:
select rating
Wanna post a correction for this tab? Suggest correction