Oops, an error
Loading. Please wait.

Been Away Too Long Tab

version 1
version 1

Whole song

16,871 views 9 this week
7 commentsread comments
1 2 3 4 5
excellent!
x 6
add to favorites
launch autoscroll
font size
0
reset
how to read this tab
guitar tuner
Autoscroll
slow
fast
+/-
esc
set tempo
stop
Help us to improve Ultimate-Guitar.com Take our survey!
×
Author
Been Away Too Long

Soundgarden

Tabbed by: Brownbear93

Tuning:EEBBBB

Intro:
|----------------------------------------------------|
|--------------------8--5-------------5-3---x-x---x--|
|--------------------8--5-------------5-3---x-x---x--|
|---(3)--3/5\3--/10--8--5--3/5--8--8--5-3---x-x---x--|
|---(3)--3/5\3--/10--8--5--3/5--8--8--5-3---x-x---x--|
|---(3)--3/5\3--/10--8--5--3/5--8--8--5-3------------|



Main Riff:
|--------------------0-----------------------0----|
|--------------------0-----------------------0----|x2
|--------------------0-----------------------0----|
|--0---0-3-3-0-0-5-0-0-----0---0-3-3-0-0-5-0-0----|
|--0---0-3-3-0-0-5-0-------0---0-3-3-0-0-5-0------|
|--0---0-3-3-0-0-5-0-------0---0-3-3-0-0-5-0------|



Verse:
|--------------------------------------------------------0---|
|--------------------------------------------------------0---|
|--2tr----3tr----5tr----3tr----/8tr----------------------0---|
|--------------------------------------0---0-3-3-0-0-5-0-0---|
|--------------------------------------0---0-3-3-0-0-5-0-----|
|--------------------------------------0---0-3-3-0-0-5-0-----|
                                                               x2
|--------------------------------------------------------0---|
|--------------------------------------------------------0---|
|--2tr----3tr----5tr----3tr----/9tr----------------------0---|
|--------------------------------------0---0-3-3-0-0-5-0-0---|
|--------------------------------------0---0-3-3-0-0-5-0-----|
|--------------------------------------0---0-3-3-0-0-5-0-----|



Pre Chorus
|-------------------------------------------------------------------------------------------------|
|-------------------------------------------------------------------------------------------------|
|------------------7----6---------------7----6---------------7--7-7-5--5-5-10--10-10-10/11-11-11--|
|--6---4-3-0-3-5-6-7----6---4-3-0-3-5-6-7----6---4-3-0-3-5-6-7--7-7-5--5-5-10--10-10-10/11-11-11--|
|--6---4-3-0-3-5-6-7----6---4-3-0-3-5-6-7----6---4-3-0-3-5-6-7--7-7-5--5-5-10--10-10-10/11-11-11--|
|--6---4-3-0-3-5-6-7----6---4-3-0-3-5-6-7----6---4-3-0-3-5-6-7--7-7-5--5-5-10--10-10-10/11-11-11--|


Main Riff

Verse

G2 second verse:
|-----------------------------------------------------------0---|
|-----------------------------------------------------------0---|
|--14tr----15tr----17tr---15tr----20tr----------------------0---|
|-----------------------------------------0---0-3-3-0-0-5-0-0---|
|-----------------------------------------0---0-3-3-0-0-5-0-----|
|-----------------------------------------0---0-3-3-0-0-5-0-----|
                                                               x2
|-----------------------------------------------------------0---|
|-----------------------------------------------------------0---|
|--14tr----15tr----17tr---15tr----21tr----------------------0---|
|-----------------------------------------0---0-3-3-0-0-5-0-0---|
|-----------------------------------------0---0-3-3-0-0-5-0-----|
|-----------------------------------------0---0-3-3-0-0-5-0-----|


PreChorus

Chorus:
|---------------------------------------------|
|---------------------------------------------|x4
|---------------------------------------------|
|--10h12-12-12--10h12-12-12--3--0-0--3-0------|
|--10h12-12-12--10h12-12-12--3--0-0--3-0------|
|--10h12-12-12--10h12-12-12--3--0-0--3-0------|



|--------------------------------------------------------------------0---|
|---/17~---15~---14-15-15--14h15p14--11~----/------------------------0---|x2
|--------------------------------------------------------------------0---|
|--------------------------------------------------0---0-3-3-0-0-5-0-0---|
|--------------------------------------------------0---0-3-3-0-0-5-0-----|
|--------------------------------------------------0---0-3-3-0-0-5-0-----|



|--------------0-----------------0-----------------0-------------------0----|
|--------------0-----------------0-----------------0-------------------0----|
|--5--5-5--5-0-0-----5--5-5--5-0-0---x-5--5-5--5-0-0---x-x-5--5-5--5-0-0----|
|--5--5-5--5-0-0-----5--5-5--5-0-0---x-5--5-5--5-0-0---x-x-5--5-5--5-0-0----|
|--6--6-6--6-0-0-----6--6-6--6-0-0---x-6--6-6--6-0-0---x-x-6--6-6--6-0-0----|
|---------------------------------------------------------------------------|


Delay:
|------------------------------------------------------------|
|----9-----10-----14-----12-----9-----10-----14-----12-------|
|----9-----10-----14-----12-----9-----10-----14-----12-------|
|----x------x------x------x-----x------x------x------x-------|
|----9-----10-----14-----12-----9-----10-----14-----12-------|
|------------------------------------------------------------|


Bridge:

G1
|---------------------------------------|
|---------------------------------------|
|---5p3p0--7p5p0--5p3p0----9~--7--0-----|x6
|---------------------------------------|
|---------------------------------------|
|---------------------------------------|


|--------------------------------|
|--------------------------------|
|--0----0----0----0----0----0----|x4
|--0--0----0---0--0--0----0---0--|
|--0--------------0--------------|
|--------------------------------|


G2
|-------------------------------------------------15--15---17-15-17-10-12---------|
|--/17~--15~--14-15-15-14h15p14--11~----\---------15--15---17-15-17-10-12---12----|
|-------------------------------------------------------------------------0----0--|
|---------------------------------------------------------------------------------|
|---------------------------------------------------------------------------------|
|---------------------------------------------------------------------------------|


|--/15-17-15--17-15-17-10-12--------------------/17--10---------/17--10-----|
|--/15-17-15--17-15-17-10-12---12---------------/17--10---------/17--10-----|
|----------------------------0----0-----------------------------------------|
|---------------------------------------------------------------------------|
|---------------------------------------------------------------------------|
|---------------------------------------------------------------------------|

|------------------------------------|
|------------------------------------|
|--2tr----3tr----5tr----3tr----/8tr--|
|------------------------------------|
|------------------------------------|
|------------------------------------|


Chorus:
G1
|---------------------------------------------|
|---------------------------------------------|x8
|---------------------------------------------|
|--10h12-12-12--10h12-12-12--3--0-0--3-0------|
|--10h12-12-12--10h12-12-12--3--0-0--3-0------|
|--10h12-12-12--10h12-12-12--3--0-0--3-0------|

G2
|---------------------------------------------|
|-------------------------------0-0----0------|x4
|--10h12-12-12--10h12-12-12--3--0-0--3-0------|
|--10h12-12-12--10h12-12-12--3--0-0--3-0------|
|--10h12-12-12--10h12-12-12--3--0-0--3-0------|
|---------------------------------------------|


end on:
|---------------------------------------|
|---------------------------------------|
|------0------0-------------------------|
|--3-3-0--5-5-0--6-4-3-0-3-5-6----------|
|--3-3-0--5-5-0--6-4-3-0-3-5-6----------|
|--3-3-0--5-5-0--6-4-3-0-3-5-6----------|


************************************
| /   slide up
| \   slide down
| h   hammer-on
| p   pull-off
| ~   vibrato
| +   harmonic
| x   Mute note
| b   Bend
| pb  Pre-bend
| br  Bend release
| pbr Pre-bend release
| brb Bend release bend
| ()  swell
| tr  tremelo pick
************************************
Suggest correction
comments
print report bad tab
7 comments total. Showing first comments.
0 reply
G0dzilla 10 wrote on January 23 2013, 07:42 pm

Someone explain this tuning to me.. i am at a loss

+3 reply
Brownbear93 804 wrote on January 24 2013, 03:07 pm

6th string stays the same, tune the A down to E, D down to B, G up to B, B stays the same, 1st string down to B

0 reply
kratos379 40 wrote on February 4 2013, 01:29 pm

Kim Thayill has used this tuning before in songs like "The Day I Tried to Live". I'm definitely not a fan of trying to tune my guitar to this...

guest
You may want to rate the tab now too:
select rating
Wanna post a correction for this tab? Suggest correction