Oops, an error
Loading. Please wait.

Big Bottom Tab

1,017 views 6 this week
1 commentread comment
1 2 3 4 5
please rate
add to favorites
launch autoscroll
font size
0
reset
how to read this tab
guitar tuner
Autoscroll
slow
fast
+/-
esc
set tempo
stop
Help us to improve Ultimate-Guitar.com Take our survey!
×
Author
Difficulty
Tuning
novice
D A D G B E
Legend: h= Hammer on
        p= Pull off
        /= Slide Down
        \= Slide up
        ^= Bend
        ~= Vibrato
       ()= Ghost Note   


Drop D Tuning

Intro/Verse
e-----------------------|
B-----------------------|
G-----------------------|
D-----------------------|
A-0-2-3-2-3-2-3-2-3-5---|
D-0-2-3-2-3-2-3-2-3-5---|

Chorus
e-------|
B-------|
G-------|
D-------| Hold these notes
A-3-2-5-|
D-3-2-5-|
Suggest correction
What's this?
You can suggest a correction to this tab. Community and Mods will review your correction and vote to approve or reject it.
comments
We did not receive enough feedback on this tab! Please rate:
print report bad tab
1 2 3 4 5
1 comment total.
0 reply
cooljew 476 wrote on August 31 2009, 02:03 am

half a step down in drop d, this is how i play it....

verse:
--------3-4-3-4-3-4--------
--------3-4-3-4-3-4--------
-4-5-6b-3-4-3-4-3-4-4-5-6b-

pre chorus:
-1--6--6------
-1--4--6------
-1-----6------

chorus:
-4-2-7-9--4-2-7-1---
-4-2-7-9--4-2-7-1---
-4-2-7-9--4-2-7-1---

i think thats right, make of it what you will

guest
You may want to rate the tab now too:
select rating
Please do not post tabs as comments. Select "correction" instead!