Oops, an error
Loading. Please wait.

Big Dumb Sex Tab

version 2
version 2

Whole song

Interactive

2,347 views 12 this week
no commentswrite comment
1 2 3 4 5
excellent!
x 2
add to favorites
launch autoscroll
font size
0
reset
how to read this tab
guitar tuner
Tab Pro tools
  • play this tab
  • loop segment
  • change instrument
  • show fretboard
  • metronome
Autoscroll
slow
fast
+/-
esc
set tempo
stop
Contributor
Difficulty
Tabbers playing skills
intermediate
intermediate ++
-------------------------------------------------------------------------------
                           Big Dumb Sex - Soundgarden
-------------------------------------------------------------------------------

Tabbed by: brian_s
Email: branimir.sremec@kc.t-com.hr

Tunning: EADGBe

A5: 577xxx
B5: 799xxx
E5: 022xxx


INTRO:
e---------------------12----------------|
B---------------------------------------|
G---11b-------11-11b--------------------|
D---------------------------------------|
A---------------------------------------|
E---------------------------------------|

A5 B5 E5 B5

e----------------------------------12---|
B---------------------------------------|
G---11b-------11-11b-------11-11b-------|
D---------------------------------------|
A---------------------------------------|
E---------------------------------------|

A5 B5 E5 B5

Main riff:
e---------------------------------------|
B---------------------------------------|
G---------------------------------------|   8x
D---7--7--------------------------------|
A---------9--7-----7--9-----------------|
E---------------9-----------------------|


VERSES 1 & 2:
Verse riff 1                verse riff 2
e-------------------------I-------------------------------------------|
B-------------------------I-------------------------------------------|
G-------------------------I-------------------------------------------|  4x
D-------------------------I---7--7------------------9b----------------|
A---9--9--7-----------7---I---------9--7-----7--9---------------------|
E------------9—-7--9------I---------------9---------------------------|

Main riff 2x


CHORUS:
Main riff 2x
A5 B5 E5 B5
Main riff 4x
A5 B5 E5 B5
Main riff 1x
A5 B5 E5 B5


Verse riff 1  4x


VERSE 3:
The same as verses 1 & 2


VERSE 4:

Now here we have some dual guitars.

Guitar 1:
e--------------------------------I------------------------------------|
B--------------------------------I------------------------------------|
G--------------------------------I------------------------------------|
D--------------------------------I---7---7-----------------------9b---|
A---9---9---7---------------7----I-----------9---7-------7---9--------|
E---------------9—--7---9--------I-------------------9----------------|

Guitar 2:
e--------------------------------I------------------------------------|
B--------------------------------I---10--10----------------------12b--|
G---11--11--9---------------9----I-----------11--9-------9---11-------|
D---------------11--9---11-------I-------------------11---------------|
A--------------------------------I------------------------------------|
E--------------------------------I------------------------------------|


CHORUS:
Main riff 2x
A5 B5 E5 B5
Main riff 4x
A5 B5 E5 B5
Main riff 1x
A5 B5 E5 B5


GUITAR SOLO:
03:04
e---------------------------------------------------------------------|
B---------------------------------------------------------------------|
G---4b----4br--2--4--2---------------2---4---4b-----------------------|
D-------------------------------4-------------------------------------|
A---------------------------------------------------------------------|
E---------------------------------------------------------------------|

e---------------------------------------------------------------------|
B---------------------------------------------------------------------|
G---4b---2---------4b----4b-4b---4br-2----4-4--2----------------------|
D---------------------------------------------------------------------|
A---------------------------------------------------------------------|
E---------------------------------------------------------------------|

03:15
e---------------------------------------------------------------------|
B---------------------------------------------------------------------|
G----16br-----16br-16---14--16--14------14--16------------------------|  2x
D-----------------------------------16--------------------------------|
A---------------------------------------------------------------------|
E---------------------------------------------------------------------|

03:20
e---------------------------------------------------------------------|
B----19b-----19b—19b-19/17---14---------------------------------------|
G---------------------------------------------------------------------|
D---------------------------------------------------------------------|
A---------------------------------------------------------------------|
E---------------------------------------------------------------------|

03:24
e----------------------------------------14---------------------------|
B----16b-----16b-16b-16b-14-12-----12-14------14-12-10----------------|
G---------------------------------------------------------------------|
D---------------------------------------------------------------------|
A---------------------------------------------------------------------|
E---------------------------------------------------------------------|

03:29
e---------------------------------------------------------------------|
B---12b-12br-10---12-10-10--------------------------------------------|
G----------------------------11-----9------6--------------------------|
D---------------------------------------------------------------------|
A------------------------------------------------7--------------------|
E---------------------------------------------------------------------|

A5 B5 E5 B5


OUTRO:
e---------------------------------------------------------------------|
B---------------------------------------------------------------------|
G---11b-------11-11b-------11-11b-------11-11b------------------------|  2x
D---------------------------------------------------------------------|
A---------------------------------------------------------------------|
E---------------------------------------------------------------------|

A5 B5 E5 B5

e---------------------------------------|
B---------------------------------------|
G---------------------------------------|
D---------------------------------------|
A---9--9--7-----------7--9--------------|
E------------9—-7--9--------------------|
comments
We did not receive enough feedback on this tab! Please rate:
print report bad tab
1 2 3 4 5
I want to post or [tab]
guest
You may want to rate the tab now too:
select rating
Please do not post tabs as comments. Select "correction" instead!