Oops, an error
Loading. Please wait.

Birth Ritual Bass Tab

1,197 views 3 this week
no commentswrite comment
1 2 3 4 5
excellent!
x 2
add to favorites
launch autoscroll
font size
0
reset
guitar tuner
Tab Pro tools
  • play this tab
  • loop segment
  • change instrument
  • show fretboard
  • metronome
Autoscroll
slow
fast
+/-
esc
set tempo
stop
Contributor
Difficulty
Tuning
intermediate
D A D G B E
Birth Ritual - Soundgarden
AMAZING SONG! One of my favorites. Drop D. Have some fast fingers for this one! Enjoy.

email: austinhendrixsg@yahoo.com

h= hammer on
s= slide

bass kicks in at 0:42

Intro/Verse/Outro
G|------------------------------------------------|
D|-------------------3--5------------------3--5---|
A|------------------------------------------------|
D|--0--00000--00000-------0--00000--00000---------|

Right before the 4th, "Rituaaaaaaaaaaaallllllll"
G|-------------------------|
D|-------------------------|
A|-1--1-1---3--3-5-3-------|
D|-------------------------|

Chorus
G|---------------------------------------------------------------|
D|---------------------------------------------------------------|
A|-1--11111--11111--1-0--3--33333--33333--3-0--5--5-5-5-5--8-8---|
D|---------------------------------------------------------------|

G|---------------------------------------------------------------|
D|---------------------------------------------------------------|
A|-5--5-5--1--1-1-1----------------------------------------------|
D|-------------------0h3-3-5-3-0---------------------------------|

G|---------------------------------------------------------------|
D|---------------------------------------------------------------|
A|-1--11111--11111--1-0--3--33333--33333--3-0--5--5-5-5-5--8-8---|
D|---------------------------------------------------------------|

G|--------------------------------------|
D|--------------------------------------|
A|-5--5-5--1--1-1-1-1--3--3-5-3---------|
D|--------------------------------------|

Bridge (Right after 2nd chorus)
G|--------------------------|
D|--------------------------|
A|--------------------------|
D|-2--22333--33555--7s2-----|x5

I hope this is right! Throw in your own fills throughout the verses and outro. 
Soundgarden is amazing! Email me for any questions you might have! Thanks!

-austinhendrixsg
comments
We did not receive enough feedback on this tab! Please rate:
print report bad tab
1 2 3 4 5
I want to post or [tab]
guest
You may want to rate the tab now too:
select rating
Please do not post tabs as comments. Select "correction" instead!