Oops, an error
Loading. Please wait.

Black Hole Sun Tab

version 1
version 1

Acoustic

Whole song

292,671 views 564 this week
15 commentsread comments
1 2 3 4 5
x 97
add to favorites
launch autoscroll
font size
0
reset
how to read this tab
guitar tuner
Autoscroll
slow
fast
+/-
esc
set tempo
stop
Help us to improve Ultimate-Guitar.com Take our survey!
×
Author
Difficulty
intermediate
Black Hole Sun - Acoustic [Stripped Sessions]
Chris Cornell

Dropped D Tuning


[Intro]

e|-----------------|-----------------|-----------------|----------------|
B|-----------------|-----------------|-----------------|----------------|
G|-------5---------|-------5---------|-------5---------|-------4--------|
D|-----5-----5-----|-----5-----------|-----3-----3-----|-----2----2-----|
A|---5---------5---|---5-------------|---3---------3---|---2--------2---|
D|-5-------------5-|-8---------------|-3-------------0-|-2------------0-|

e|-----------------|-----------------|
B|-----------------|-----------------|
G|-------1---------|-------2---------|
D|-----1-----1-----|-----0-----------|
A|---1---------1---|---3-------------|
D|-1-------------1-|-0---------------|


[Verse 1] (x2)

e|-----------------|-----------------|-----------------|----------------|
B|-----------------|-----------------|-----------------|----------------|
G|-------5---------|-------5---------|-------5---------|-------4--------|
D|-----5-----5-----|-----5-----------|-----3-----3-----|-----2----2-----|
A|---5---------5---|---5-------------|---3---------3---|---2--------2---|
D|-5-------------5-|-8---------------|-3-------------0-|-2------------0-|

e|-----------------|-----------------|-----------------|---------------|
B|-----------------|-----------------|-----------------|---------------|
G|-------1---------|-------2---------|-----------------|---------------|
D|-----1-----1-----|-----0-----0-----|-----5-------5---|-----6---------|
A|---1---------1---|---3---------3---|---5-------5-----|---6-----------|
D|-1-------------1-|-0-------------0-|-5-----5-3-----3-|-6-------------|


[Chorus]

e|-----------------|-----------------|-----------------|---------------|
B|-----------------|-----------------|-----------------|---------------|
G|-------1---------|-------2---------|-----------------|-------7-------|
D|-----1-----1-----|-----0-----0-----|-----5-------5---|-----8---8-----|
A|---1---------1---|---3---------3---|---5-------5-----|---8-------8---|
D|-1-------------1-|-0-------------0-|-5-----5-3-----3-|-8-----------0-|

e|-----------------|-----------------|-3---------------|-2-------------|
B|-----------------|-----------------|-3---------------|-3-------------|
G|-------1---------|-------2---------|-5---------------|-2-------------|
D|-----1-----1-----|-----0-----0-----|-5---------------|-0-------------|
A|---1---------1---|---3---------3---|-3---------------|-0-------------|
D|-1-------------1-|-0-------------0-|(3)--------------|-0-------------|


[Verse 2] (x2)

e|-----------------|-----------------|-----------------|----------------|
B|-----------------|-----------------|-----------------|----------------|
G|-------5---------|-------5---------|-------5---------|-------4--------|
D|-----5-----5-----|-----5-----------|-----3-----3-----|-----2----2-----|
A|---5---------5---|---5-------------|---3---------3---|---2--------2---|
D|-5-------------5-|-8---------------|-3-------------0-|-2------------0-|

e|-----------------|-----------------|-----------------|---------------|
B|-----------------|-----------------|-----------------|---------------|
G|-------1---------|-------2---------|-----------------|---------------|
D|-----1-----1-----|-----0-----0-----|-----5-------5---|-----6---------|
A|---1---------1---|---3---------3---|---5-------5-----|---6-----------|
D|-1-------------1-|-0-------------0-|-5-----5-3-----3-|-6-------------|


[Chorus]

e|-----------------|-----------------|-----------------|---------------|
B|-----------------|-----------------|-----------------|---------------|
G|-------1---------|-------2---------|-----------------|-------7-------|
D|-----1-----1-----|-----0-----0-----|-----5-------5---|-----8---8-----|
A|---1---------1---|---3---------3---|---5-------5-----|---8-------8---|
D|-1-------------1-|-0-------------0-|-5-----5-3-----3-|-8-----------0-|

e|-----------------|-----------------|-3---------------|-1-------------|
B|-----------------|-----------------|-3---------------|-1-------------|
G|-------1---------|-------2---------|-5---------------|-3-------------|
D|-----1-----1-----|-----0-----0-----|-5---------------|-3-------------|
A|---1---------1---|---3---------3---|-3---------------|-1-------------|
D|-1-------------1-|-0-------------0-|(3)--------------|(1)------------|

e|-----------------|-----------------|-----------------|---------------|
B|-----------------|-----------------|-----------------|---------------|
G|-------1---------|-------2---------|-----------------|-------7-------|
D|-----1-----1-----|-----0-----0-----|-----5-------5---|-----8---8-----|
A|---1---------1---|---3---------3---|---5-------5-----|---8-------8---|
D|-1-------------1-|-0-------------0-|-5-----5-3-----3-|-8-----------0-|

e|-----------------|-----------------|
B|-----------------|-----------------|
G|-------1---------|-------2---------|
D|-----1-----1-----|-----0-----------|
A|---1---------1---|---3-------------|
D|-1-------------1-|-0---------------|


[Bridge] (x4)

e|-3---------------|-1---------------|-2---------------|
B|-3---------------|-1---------------|-3---------------|
G|-5---------------|-3---------------|-2---------------|
D|-5---------------|-3---------------|-0---------------|
A|-3---------------|-1---------------|-0---------------|
D|(3)--------------|(1)--------------|-0---------------|


[Solo]

e|-----------------|-3---------------|-----------------|-3-------------|
B|-----------------|-3---------------|-----------------|-3-------------|
G|-----------------|-4---------------|-----------------|-4-------------|
D|-----------------|-3---------------|-----------------|-3-------------|
A|-3-2-0--2h3------|-3---------------|-3-2-0--2h3------|-3-------------|
D|------------5-4--|-3---------------|------------5-4--|-3-------------|

e|-----------------|-3---------------|-----------------|-3-------------|
B|-----------------|-3---------------|-----------------|-3-------------|
G|-----------------|-4---------------|-----------------|-4-------------|
D|-----------------|-3---------------|-----------------|-3-------------|
A|-3-2-0--2h3------|-3---------------|-3-2-0--2h3------|-3-------------|
D|------------5-4--|-3---------------|------------5-4--|-3-------------|

e|-----------------|
B|-----------------|
G|(3)s(5)----------|
D|-3-s-5-----------|
A|-3-s-5-----------|
D|-3-s-5-----------|


[Verse]

e|-----------------|-----------------|-----------------|---------------|
B|-----------------|-----------------|-----------------|---------------|
G|-------5---------|-------5---------|-------5---------|-------4-------|
D|-----5-----5-----|-----5-----------|-----3-----3-----|-----2---------|
A|---5---------5---|---5-------------|---3---------3---|---2-----------|
D|-5-------------5-|-8---------------|-3-------------0-|-2-------------|


[Chorus]

e|-----------------|-----------------|-----------------|---------------|
B|-----------------|-----------------|-----------------|---------------|
G|-------1---------|-------2---------|-----------------|-------7-------|
D|-----1-----1-----|-----0-----0-----|-----5-------5---|-----8---8-----|
A|---1---------1---|---3---------3---|---5-------5-----|---8-------8---|
D|-1-------------1-|-0-------------0-|-5-----5-3-----3-|-8-----------0-|

e|-----------------|-----------------|-3---------------|-1-------------|
B|-----------------|-----------------|-3---------------|-1-------------|
G|-------1---------|-------2---------|-5---------------|-3-------------|
D|-----1-----1-----|-----0-----0-----|-5---------------|-3-------------|
A|---1---------1---|---3---------3---|-3---------------|-1-------------|
D|-1-------------1-|-0-------------0-|(3)--------------|(1)------------|

e|-----------------|-----------------|-----------------|---------------|
B|-----------------|-----------------|-----------------|---------------|
G|-------1---------|-------2---------|-----------------|-------7-------|
D|-----1-----1-----|-----0-----0-----|-----5-------5---|-----8---8-----|
A|---1---------1---|---3---------3---|---5-------5-----|---8-------8---|
D|-1-------------1-|-0-------------0-|-5-----5-3-----3-|-8-----------0-|

e|-----------------|-----------------|
B|-----------------|-----------------|
G|-------1---------|-------2-------3-|
D|-----1-----1-----|-----0-----0-----|
A|---1---------1---|---3---------3---|
D|-1-------------1-|-0---------------|


[Bridge] (x8)

e|-3---------------|-1---------------|-2---------------|
B|-3---------------|-1---------------|-3---------------|
G|-5---------------|-3---------------|-2---------------|
D|-5---------------|-3---------------|-0---------------|
A|-3---------------|-1---------------|-0---------------|
D|(3)--------------|(1)--------------|-0---------------|

************************************

| (n)  Ghost note
| h    Hammer-on
| s    Slide

************************************

Listen to the song to figure out the strumming.

Enjoy!
Suggest correction
comments
print report bad tab
15 comments total. Showing first comments. show 1 bad comment
+5 reply
Memento88 10 Jun 23, 2008 05:54 AM

Thanks! This is exactly what he's playing! Keep it up.

+9 reply
siraxlrose 20 Nov 23, 2008 11:31 AM

this is the chris cornell stripped sessions, it's just him and his acoustic, youtube it, this is completely correct, good job.

guest
You may want to rate the tab now too:
select rating
Wanna post a correction for this tab? Suggest correction