Oops, an error
Loading. Please wait.
We have Chord Pro version of Black Hole Sun.
It's the closest thing you can get to the original song and it has interactive parts. Check out the tab »
×
19,175 views 252 this week
3 commentsread comments
1 2 3 4 5
x 14
add to favorites
launch autoscroll
font size
0
reset
guitar tuner
backing track
0:00
0:00
Autoscroll
slow
fast
+/-
esc
set tempo
stop
Author
Difficulty
Tuning
novice
D A D G
[Verse]          
G|---------------|----------|---------|----------------|
D|*--------------|----------|---------|---------------*|
A|*--------------|----------|---------|---------------*|
D|--5--5/8---8\--|--3---2---|-1---0---|-5--5-3--3-/-6--|

[Chorus 1]
G|-----------|------------------|---------|-----------------|
D|-----------|------------------|---------|-----------------|
A|-----------|------------1-----|---------|-3-3-3-3-/-5-----|
D|-1----0----|--5--5-3--3-----0-|-1---0---|-----------------|

[Verse]          
G|---------------|----------|---------|----------------|
D|*--------------|----------|---------|---------------*|
A|*--------------|----------|---------|---------------*|
D|--5--5/8---8\--|--3---2---|-1---0---|-5--5-3--3-/-6--|

[Chorus 2]
G|-----------|------------------|---------|-----------------|
D|-----------|------------------|---------|-----------------|
A|-----------|------------1-----|---------|-3-33-3-0-1-11-1-|
D|-1----0----|--5--5-3--3-----0-|-1---0---|-----------------|
                                                                   (4x)
G|-----------|------------------|---------|----------------------------|
D|-----------|------------------|---------|*--------------------------*|
A|-----------|------------1-----|---------|*-3-33-3-0-1-11-1--5--55-5-*|
D|-1----0----|--5--5-3--3-----0-|-1---0---|------------------(0)-(0)---|
                
[Guitar Solo]          (6x)            
G|-----------------------|-----------|----------------|----------------|
D|*---------------------*|-----------|----------------|----------------|
A|*-3-2-0--3------------*|-----------|----------------|----------------|
D|-----------5-4-3-3-33--|-3/5--5----|-5--/-8---8\----|--3---2---------|
                
[Chorus 2]
G|-----------|------------------|---------|-----------------|
D|-----------|------------------|---------|-----------------|
A|-----------|------------1-----|---------|-3-33-3-0-1-11-1-|
D|-1----0----|--5--5-3--3-----0-|-1---0---|-----------------|
                                                                   (4x)
G|-----------|------------------|---------|----------------------------|
D|-----------|------------------|---------|*--------------------------*|
A|-----------|------------1-----|---------|*-3-33-3-0-1-11-1--5--55-5-*|
D|-1----0----|--5--5-3--3-----0-|-1---0---|------------------(0)-(0)---|

[Guitar Solo]          (6x)            
G|-----------------------|-----------|----------------|----------------|
D|*---------------------*|-----------|----------------|----------------|
A|*-3-2-0--3------------*|-----------|----------------|----------------|
D|-----------5-4-3-3-33--|-3/5--5----|-5--/-8---8\----|--3---2---------|



************************************

| *    Natural harmonic
| /    Slide up
| \    Slide down
| (n)  Ghost note

************************************
Suggest correction
comments
print report bad tab
3 comments total.
+6 reply
tydogg2443 522 Apr 29, 2014 10:12 AM

Just want to mention... For anyone that thinks this sounds wrong, it's because the track is actually about a 1/4 semitone sharp(not normal A440). That's likely because they sped up the tape, thus affecting the pitch(not entirely uncommon--i.e. "Layla"). So if you want to play along to the original, you'll either have to pitch adjust the original track down or just tune to Drop-D tuning and tune it about a quarter semitone sharp(~50 cents #).

guest
You may want to rate the tab now too:
select rating
Wanna post a correction for this tab? Suggest correction