Oops, an error
Loading. Please wait.

Black Rain Tab

version 2
version 2

Whole song

Interactive

1,952 views 1 this week
no commentswrite comment
1 2 3 4 5
1 last vote to show rating
add to favorites
launch autoscroll
font size
0
reset
how to read this tab
guitar tuner
Autoscroll
slow
fast
+/-
esc
set tempo
stop
Help us to improve Ultimate-Guitar.com Take our survey!
×
Author
Difficulty
Tuning
intermediate
D A D G B E
-------------------------------------------------------------------------------
                             BLACK RAIN - Soundgarden
-------------------------------------------------------------------------------
Tabbed by: Xx_lord_xenu_xX
Email: thetimeofthenine@yahoo.com

Tuning: Drop D



intro
e|-----------------------------------------------------|
B|-----------------------------------------------------|
G|-----------------------------------------------------|
D|7-----7------7-----7------7-----7------7-------------|
A|5-3---5------5-3---5------5-3---5------5-3-----------|
D|--3------------3------------3------------3/12-11-7-6-|



e|---------------------------------------------------------|repeat ] repeat 
B|---------------------------------------------------------|this   ]this
G|---------------------------------------------------------|part   ]whole 
D|---------------------------------------------------------|a few  ]part
A|---------------------------------------------------------|times  ]a few
D|0-0-2h3-2p0-0-0-15-15/16-15--0-0-2h3-2p0-0-0-15-15/16-12-|       ]times
                                                                   ]
e|---------------------------------------|                         ]
B|---------------------------------------|                         ]
G|---------------------------------------|                         ]
D|---------------------------------------|                         ]
A|-------------------------------------2-|                         ]
D|0-0-2h3-2p0-0-0-15-15/16-15--0-0-2h3-2-|                         ]



e|-------------------------------------------------------|
B|-------------------------------------------------------|
G|-------------------------------------------------------|
D|-------------------------------------------------------|
A|-------------------------------------------------------|
D|0-0-3h5p3--6--0-0-3h5p3--3--0-0-3h5p3--6--0-0-3h5p3--3-|


e|----------------------------------|
B|----------------------------------|
G|----------------------------------|
D|7----7----7----7----7-------------|
A|5-3--5-0--5-3--5-0--5-3-----------|
D|--3----0----3----0----3/12-11-7-6-|




e|-------------------------------------------| repeat twice
B|------------------------------------0h6h7h-|
G|0h5h7-0h3h5-0h4h5-0h5h7-0h5h6-0h5h7--------|
D|-------------------------------------------|
A|-------------------------------------------|
D|-------------------------------------------|



************************************

| /   slide up
| \   slide down
| h   hammer-on
| p   pull-off
| ~   vibrato
| +   harmonic
| x   Mute note
| b   Bend
| pb  Pre-bend
| br  Bend release
| pbr Pre-bend release
| brb Bend release bend

************************************
Suggest correction
Give kudos to tab author, rate the tab!
1 2 3 4 5
comments
print report bad tab
guest
You may want to rate the tab now too:
select rating
Wanna post a correction for this tab? Suggest correction