Oops, an error
Loading. Please wait.

Black Rain Tab

version 4
version 4

Whole song

Interactive

4,541 views 3 this week
1 commentread comment
1 2 3 4 5
please rate
add to favorites
launch autoscroll
font size
0
reset
how to read this tab
guitar tuner
Autoscroll
slow
fast
+/-
esc
set tempo
stop
Help us to improve Ultimate-Guitar.com Take our survey!
×
Author
Difficulty
Tuning
intermediate
D A D G B E
x=palm mute
h=hammer-on
p=pull-off
b=bend
r=let ring
v=vibrato
/=slide up
\=slide down
}00{=slide-up/slide down again

Intro/Chorus

e--x--------x---x------x-----|-------------|
B--3--------3---x------3-----|-------------|
G--2--x-----2---0------2--x--|-------------|
d--0--3-----0---0------0--3--|-------------|
A--0--3-----0---0------0--3--|-0/10-8------|
D--0--3r----0---0r-----0--3r-|-------12-11-|
 
Verse
(Play this 2x)

e-----------------------------------------------------------|
B-----------------------------------------------------------|
G-----------------------------------------------------------|
d-----------------------------------------------------------|
A----------------9b-8---------------8b-7---------------8b-5-|
D--0-0-2h3p2-000------0-0-2h3p2-000------0-0-2h3b2-000------|

After playing verse 2x, play ending riff

e------------------|
B------------------|
G------------------|
d----------1-------|
A----------1-------|
D--0-0-2h3-1--}12{-|

******************************************
Play verse 4x, then play ending riff twice
******************************************

Pre-Chorus

e---------------------------|
B---------------------------|
G---------------------------|    Play this 4x, then go back to chorus
d--0------------0-----------|
A--0------------0-----------|
D--0-0-365-5/8--0-0-3h53-5b-|

****************************************
Play chorus riff 4x, then play verse 4 x
****************************************

Awesome Riff

e------------------------------------------|
B------------------------------------------|
G--------------------------------0h3h5-77v-|    Play 2x
d--------0h5h7-0h3h5-------0h5h7-----------|
A--0h5h7-------------0h5h7-----------------|
D------------------------------------------|

**********************************
Play Pre-Chorus 4x, then Chorus 8x
**********************************

There's a little part that goes like this after that:

e--x--------------------------------|
B--3--------------------------------|
G--2--------------------------------|
d--0----x--------3333---------------|
A--0----3--------3333--0/10-8-------|
D--0-00-30-0-000-3333---------12-11-|

Play Pre-Chorus 3 more x, then end with:

e------------------------------------------|
B------------------------------------------|
G--------------------------------0h3h5-77v-|    Play 2x
d--------0h5h7-0h3h5-------0h5h7-----------|
A--0h5h7-------------0h5h7-----------------|
D------------------------------------------|

Suggest correction
What's this?
You can suggest a correction to this tab. Community and Mods will review your correction and vote to approve or reject it.
comments
We did not receive enough feedback on this tab! Please rate:
print report bad tab
1 2 3 4 5
1 comment total.
0 reply
itzzvengance 18 wrote on July 26 2015, 12:29 am

Good Tab Man :o

guest
You may want to rate the tab now too:
select rating
Please do not post tabs as comments. Select "correction" instead!