Oops, an error
Loading. Please wait.

Bleed Together Bass Tab

version 1
version 1

Whole song

Interactive

664 views 1 this week
1 commentread comment
1 2 3 4 5
1 last vote to show rating
add to favorites
launch autoscroll
font size
0
reset
guitar tuner
Autoscroll
slow
fast
+/-
esc
set tempo
stop
Help us to improve Ultimate-Guitar.com Take our survey!
×
Title: Bleed Together
CD:    A Sides
Band:  Soundgarden

Tuning:g
       d
       a
       e
  
  Riff a 
-|-------------------------------------|-
*|---------------------4---------------|* Repeat x2
*|-----------------5h7---4-4-4-4-4-4-4-|*
-|-0-0-0-0-0-0-4/5---------------------|-

  RIFF b
-|-------------------------------------------------------------------------|-
*|-------------------------------------------------------------------------|*
x2
*|-------------7-7-7---7-5-5-5-5-5-5---------7/8-8-8-----------------------|*
-|-7-7-7-7-7-7-------7---------------4/5-5-5---------8-8-8-8-8-8-8-8-8-8-8-|-
  
  RIFF c
-|--------------------------------------------------|-
-|--------------------------------------------------|-
-|---7-7------12-12--------10-10--------------5-----|-
-|-7-----7-7--------12-12--------10-10--5-5-5---5-0-|-
  RIFF d
-|-----------------------------------------------------------------------|-
-|-----------------------------------------------------------------------|-
-|---7-7------12-12--------10-10--------------5--------------------------|-
-|-7-----7-7--------12-12--------10-10--5-5-5---5-7--8-8-8-8-8-8-8-8-8-8-|-

RIFF b x2
RIFF c
RIFF d

-|---------------------------|-
-|---------------------------|-
-|-5-5-5-5-5-5-5-5-5-5-5-5-5-|-
-|---------------------------|-

RIFF a

-|----------------------------------------|-
-|----------------------------------------|-
-|---------5-5h7--------3-3-3-3-3-3-3-3-3-|-
-|-0-0-0-0-------7h6p5--------------------|-

  RIFF e
-|-----------------------------------------------------------------|
-|-----------------------------------------------------------------|
-|-7-7-7-7-7-7-7-7-5-5-5-5-5-5-5-5-3-3-3-3-3-3-3-3-----------------|

-|-------------------------------------------------2-2-2-2-2-2-2-0-|

  RIFF f
-|---------------------------------------------------------------------------------|-
-|---------------------------------------------------------------------------------|-
-|-7-7-7-7-7-7-7-7-5-5-5-5-5-5-5-5-3-3-3-3-3-3-3-3---------------------------------|-
-|-------------------------------------------------3-3-3-3-3-3-3-3-3-3-3-3-3-3-3-3-|-

-|---------------------------------------------------|-
-|------------------11--------------9h11-11-11-11-11-|- This part might
be wrong
-|-10----------9h11------------9h11------------------|- 
-|----10--9h11---------9-9-9-9-----------------------|-

RIFF b x2
RIFF c
RIFF d

-|---------------------------|-
-|---------------------------|-
-|-5-5-5-5-5-5-5-5-5-5-5-5-5-|-
-|---------------------------|-

RIFF a

-|----------------------------------------|-
-|----------------------------------------|-
-|---------5-5h7--------3-3-3-3-3-3-3-3-3-|-
-|-0-0-0-0-------7h6p5--------------------|-

RIFF e
RIFF f(shorten how many times you play the 3rd fret to 8 times)

-|-----------------------------------
-|-----------------------------------
-|-----------------------------------
-|-8-8-8-8-8-8-8-8-8-8-8-8-8-8-8-8---

----------------------------------|-
----------------------------------|-
----------------------------------|-
--5-5-5-5-5-5-5-5-5-5-5-5-5-5-5-5-|-

BASS SOLO (play this with Chorus or/with a Wah)

-|-------------------------------------------------
-|-----------------7-7-7-7-7-7-7-7-----------------
-|-7-7-7-7-7-7-7-7-----------------5-5-5-5-5-5-5-5-
-|-------------------------------------------------

----------------------------------------------------
--4-4-4-4-4-4-4-4-----------------5-5-5-5-5-5-5-5-5-
------------------7-7-7-7-7-7-7-7-------------------
----------------------------------------------------

--------------------------------------------------
------------------7-7-7-7-7-7-7-7-7-7-7-7-7-7-7-7-
--5-5-5-5-5-5-5-5---------------------------------
--------------------------------------------------

--7-7-7-7-7-7-7-7-----------------------------------------
------------------9-9-9-9-9-9-9-9-10-10-10-10-10-10-10-10-
----------------------------------------------------------
----------------------------------------------------------

--------------------------------------------------------------------|-
--------------------------------------------------------------------|-
-7-7-7-7-7-7-10-10-10-10-10-10-10-10-9-9-9-9-9-9-9-9-7-7-7-7-7--5---|-
------------------------------------------------------------------5-|-
-the Solo is played as one big RIFF

RIFF e *REPEAT a lot*

-|----------14-------------------16-|-
-|-------14-------------------15----|-
-|----12-------14-------15-15-------|-
-|-12-------------14-15-------------|-

there

ODIUM 98
Suggest correction
Give kudos to tab author, rate the tab!
1 2 3 4 5
comments
print report bad tab
1 comment total.
+1 reply
whatarainylady 30 Jan 22, 2006 10:44 AM

Good tab, I would just suggest that the little one noter between riff D and riff A (chorus) is not 5 on A, it's 5 on E.

guest
You may want to rate the tab now too:
select rating
Wanna post a correction for this tab? Suggest correction