Oops, an error
Loading. Please wait.

Blind Dogs Tab

version 3
version 3

Whole song

Interactive

1,425 views 1 this week
no commentswrite comment
1 2 3 4 5
please rate
add to favorites
launch autoscroll
font size
0
reset
how to read this tab
guitar tuner
Tab Pro tools
  • play this tab
  • loop segment
  • change instrument
  • show fretboard
  • metronome
×
Best way to learn
"Blind Dogs"
Autoscroll
slow
fast
+/-
esc
set tempo
stop
Contributor
Difficulty
Tuning
novice
D A D G B E
Blind Dogs

b above note = bend
ub above note = unison bend
Dropped D tuning 4/4        Fig. 1
-|--2-----|-----|--2--|------||------------------------|------------------||----|
-|--3-----|-----|--3--|------||------------------------|------------------||----|
-|--2-----|-----|--2--|------||*--------------------5--|--5-7-5-7--------*||----|
-|--0-----|-----|--0--|------||*--2--------------5-----|---/-\-/---------*||----|
-|--0-----|-----|--0--|------||------3--------------3--|--3-5-3-5---------||----|
-|--0-----|-----|--0--|--0---||---------5--3-----------|-----------0------||----|


                     Run...
----------------------||--2--0--------0--------|---------------------||-----------|
----------------------||--3--3-----------3-----|---------------------||-----------|
----------------------||*-2--2--------------2--|--------------------*||-----------|
2--------------5------||*-0--0-----3-----------|--------0-----------*||-----------|
---3------------------||-----------------------|--3--2---------------||-----------|
------5--3------------||-----------------------|-----------3-----0---||-----------|


     W/ Fig. 1          ub   ub
||--------------------------------|---------||----------------------------------|
||-----------------------12---12--|---------||----------------------------------|
||*----------------------14---14--|--------*||----------------------------------|
||*-------------------------------|--------*||----------------------------------|
||--------------------------------|---------||----------------------------------|
||--------------------------------|---------||----------------------------------|



------0--0-----------0--0-----|-------------------------------------------------|
------3--3--3--------3--3--3--|-------------------------------------------------|
---2--------------2-----------|-------------------------------------------------|
0--------------0--------------|--------0----------------------------------------|
------------------------------|--3--2-------------------------------------------|
------------------------------|-----------3-----0-------------------------------|



||---2--0--------0--------|---------------------||------------------------------|
||---3--3-----------3-----|---------------------||------------------------------|
||*--2-----------------2--|--------------------*||------------------------------|
||*--0--------3-----------|--------0-----------*||------------------------------|
||------------------------|--3--2---------------||------------------------------|
||------------------------|-----------3-----0---||------------------------------|


     W/ Fig. 1          ub   ub
||--------------------------------|---------||--------------------------|-------|
||-----------------------12---12--|---------||--------------------------|-------|
||*----------------------14---14--|--------*||--14--11h12p11--11h12p11--|-------|
||*-------------------------------|--------*||--------------------------|-------|
||--------------------------------|---------||--------------------------|-------|
||--------------------------------|---------||--------------------------|-------|



------------------|--------------0--------------0-----------|-------------------|
------------------|--------3--------------3--------------3--|-------------------|
9\7--4--4/9\7--4--|-----2-----2--------2-----2--------2-----|-------------------|
------------------|--0--------------0--------------0--------|-------------------|
------------------|-----------------------------------------|-------------------|
------------------|-----------------------------------------|-------------------|


                        Unison with previous phrase
--------------------||-----------------------|--------------------|-------------|
5\3--5--5/6--5--3---||-----------------------|--------------------|-------------|
-------------------*||-----------------------|--------------------|-------------|
-------------------*||-----------------------|--------------------|-------------|
--------------------||---12--9h10p9--9h10p9--|--7\5--2--2/7\5--2--|-------------|
--------------------||-----------------------|--------------------|-------------|



------------------------|-----------------------||------------------------------|
------------------------|-----------------------||------------------------------|
------------------------|----------------------*||------------------------------|
---0--2-----0--2--0-----|--2--0--2--2/3--2--0--*||------------------------------|
3--------3-----------3--|-----------------------||------------------------------|
------------------------|-----------------------||------------------------------|


    Play with previous phrase 2nd time
17----------15--|--14--------------------|----------15--14------14h15--17--|----|
--------13------|------15--13\12--12h13--|--12--13----------15-------------|----|
----------------|------------------------|---------------------------------|----|
----------------|------------------------|---------------------------------|----|
----------------|------------------------|---------------------------------|----|
----------------|------------------------|---------------------------------|----|


                 ub                                               ub
---||---2--0---------|-------------------------------||--2--0---------|---------|
---||---3--3------6--|-------------------------------||--3--3------6--|---------|
---||*--2--2------8--|----------5--4----------------*||--2--2------8--|---------|
---||*--0--0---------|-------5--------5-------3p0---*||--0--0---------|---------|
---||----------------|--3h5--------------3h5---------||---------------|---------|
---||----------------|-------------------------------||---------------|---------|



--------------------||------------|------------||-------------------------------|
--------------------||------------|------------||-------------------------------|
--------5--4--------||*-----------|-----------*||-------------------------------|
-----5--------5-----||*-----------|--4--2--2--*||-------------------------------|
3h5-----------------||------------|--5--3--3---||-------------------------------|
-----------------0--||---0--------|------------||-------------------------------|
comments
We did not receive enough feedback on this tab! Please rate:
print report bad tab
1 2 3 4 5
I want to post or [tab]
guest
You may want to rate the tab now too:
select rating
Please do not post tabs as comments. Select "correction" instead!