Oops, an error
Loading. Please wait.

Blood On The Valley Floor Tab

3,768 views 18 this week
1 commentread comment
1 2 3 4 5
accurate
x 3
add to favorites
launch autoscroll
font size
0
reset
how to read this tab
guitar tuner
Tab Pro tools
  • play this tab
  • loop segment
  • change instrument
  • show fretboard
  • metronome
Autoscroll
slow
fast
+/-
esc
set tempo
stop
Contributor
Blood On The Valley Floor

Soundgarden

Tabbed by Brownbear93

Tuning: C G D G B E


|----------------------------------------|
|----------------------------------------|
|--5h7-7-7-7-5-3--3h5-5-5-5-5-3h5p3p0----|
|----------------------------------------|
|----------------------------------------|
|----------------------------------------|


Verse: x2
|-----------------------------|
|-----------------------------|x4
|-----------------------------| 
|-----------------------------|
|---5--5----7--7-7-7-7-5-3----|
|---0--0----0--0-0-0-0-0-0----|

|------------------------------------------------------------------------------------------|
|------------------------------------------------------------------------------------------|
|------------------------------------------------------5h7-7-7-7-5-3--3h5-5-5-5-5-3h5p3p0--| 
|------------------------------------------------------------------------------------------|
|---5--5----7--7-7-7-7-5-3-----5--5----7--7-7-7-7-5-3--------------------------------------|
|---0--0----0--0-0-0-0-0-0-----0--0----0--0-0-0-0-0-0--------------------------------------|
   

Chorus:
                            x2
|----------------------------|-----------------------------------|
|----------------------------|-----------------------------------|
|--3-------------------------|-----------------------------------|
|--3--3--2-----------5-7-----|-----------------2-----------------|
|--3--3--0-----0-3---3-5-----|--8--7---------5----3------5---3---|
|-----3--0-----0-3---3-5-----|-------5-3---4--------4-2----3-----|

Verse

G2:
|--------0-------|
|----------------|
|---2/3----------|x2
|----------------|
|----------------|
|----------------|


Chorus

G2:w/ slide             x2
|------------------------|
|------------------------|
|---3/5------5\3----5/7--|
|------------------------|
|------------------------|
|------------------------|



Post Chorus: 
G1:                      x2
|---------------------------|----------------|
|---------------------------|----------------|
|------------4--------------|----------------|
|--7---7-7-7-5---7-7-7/9-9--|--7-7-7/9-9-----|
|--7---7-7-7-5---5-5-5/7-7--|--5-5-5/7-7-----|
|----------------5-5-5/7-7--|--5-5-5/7-7-----|


G2:w/ slide            
|-----------------------------------------------------------|
|-----------------------------------------------------------|
|--7/12------3/5-5-5\0-----10/12------0/5-5-5\0---0/5-5-5\0-|
|-----------------------------------------------------------|
|-----------------------------------------------------------|
|-----------------------------------------------------------|


G3:
|-----------------------|
|-----------------------|
|--10\9-7---7-7/9/12----|
|-----------------------|
|--10\9-7---7-7/9/12----|
|-----------------------|



G1 Solo backing:
                       x2                      
|-------------------------|----------------------------------------|
|-------------------------|----------------------------------------|
|-------------------------|----------------------------------------| x2
|--------2----------------|----------------------2-----------------|
|--5--5-----3------5---3--|-5--5--8--7---------5----3------5---3---|
|--0--0-------4-2----3----|-0--0-------5-3---4--------4-2----3-----|




Solo:
|----------------------------------------------------------------|
|----------------------------------------------------------------|
|--14/15-14-12------14/15/17---12\10--9/10---------7b--r-5h7p5---|
|----------------------------------------------------------------|
|--14/15-14-12------14/15/17---12\10--9/10-----------------------|
|----------------------------------------------------------------|

|-----------------------------------------------------------------------------------|
|-----------------------------------------------------------------------------------|
|--17/15--14/15--14-12-10-10/12\9-9----9/10\9-7-5--7/9-9-----15\12-10-9-10/12-10-9--|
|-----------------------------------------------------------------------------------|
|--17/15--14/15--14-12-10-10/12\9-9----9/10\9-7-5--7/9-9-----15\12-10-9-10/12-10-9--|
|-----------------------------------------------------------------------------------|

|------------------------------------------------------------|
|------------------------------------------------------------|
|-9/12-10-9--9-9\7--5/7\5--3/5\--3/-------------5b-3h5p3p0---|
|------------------------------------------------------------|
|-9/12-10-9--9-9\7--5/7\5--3/5\--3/--------------------------|
|------------------------------------------------------------|

Verse

Chorus

End on:
|----------|
|----------|
|----------|
|----------|
|---5--5---|
|---0--0---|



************************************

| /   slide up
| \   slide down
| h   hammer-on
| p   pull-off
| ~   vibrato
| +   harmonic
| x   Mute note
| b   Bend
| pb  Pre-bend
| br  Bend release
| pbr Pre-bend release
| brb Bend release bend

************************************
comments
We did not receive enough feedback on this tab! Please rate:
print report bad tab
1 2 3 4 5
1 comment total.
0 reply
Audioslave222 wrote on February 23 2013, 03:38 pm

Correct tuning is CGDGGE

I want to post or [tab]
guest
You may want to rate the tab now too:
select rating
Please do not post tabs as comments. Select "correction" instead!