Oops, an error
Loading. Please wait.

Bones Of Birds Tab

version 4
version 4

Whole song

688 views 9 this week
no commentswrite comment
1 2 3 4 5
accurate
x 3
add to favorites
launch autoscroll
font size
0
reset
how to read this tab
guitar tuner
Tab Pro tools
  • play this tab
  • loop segment
  • change instrument
  • show fretboard
  • metronome
Autoscroll
slow
fast
+/-
esc
set tempo
stop
Contributor
Bones of birds - Soundgarden

*This tab is for guitar, including parts of bass if you play alone in bedroom like me

Drop D

b:bending
br:bend release
h:hammer on
v:vibrato
\:slide

-+-+-+-+-+-+-+-+-+-+-+-+-+-+-+-+-+-+-+-+-+-+-+-+-+-+-+-+-+-+-+-+-+-+-+-+-+-+

GUITAR


Intro/pre-verse 0:00/1:13
1-------------------------------------------------------------------------|
2-------------------------------------------------------------------------|
3-------------------------------------------------------------------------|
4---------4v--------0-4-6-6b7-7br6-4v-----------------4v---0-4-6-6b7-6v---|
5-------------------------------------------------------------------------|
6---0-0---------------------------------------0-0-------------------------|


Verse 0:15/1:33
1---------------------------------------------------------------------------|
2---------------------------------------------------------------------------|
3---------------------------------------------------------------------------|
4---------4v-----0-4-6-6b7-7br6--------------4--0-4-6-6b7-------------------|
5-----------------------------------------------------0---------------------|
6---0-0-----------------------------------4---------------------------------|


Chorus 00:41/2:00/2:54  (0:55/2:13/3:08-downstrokes)
1---------------------------------------------------------------------------|
2---------------------------------------------------------------------------|
3---------------------------------------------------------------------------|
4-------7--7--7----------3-3-6-----------10-10-10--------6-6-10-------------|
5-------7-10-10----------3-3-3-----------10-13-13--------6-6-6--------------|
6-------7--7--7----------3-3-3-----------10-10-10--------6-6-6--------------|


Interlude 1:21
1---10------9--7--5--4----------------------------------------------------|
2-------------------------------7-----------------------------------------|
3---7-------6--4--2--6----------------------------------------------------|
4-------------------------------4-------------0-4-6-6b7-------------------|
5-------------------------------------------------------------------------|
6-------------------------------------------------------------------------|


Bridge 2:28/3:37
1-------------------------------------------------------------------------|
2-------------------------------------------------------------------------|
3-------------------------------------------------------------------------|
4-------6----6---------10-10-10-------------------------------------------|
5-------3----3----------6--6--6-------------------------------------------|
6-------3----3----------6--6--6-------------------------------------------|

-+-+-+-+-+-+-+-+-+-+-+-+-+-+-+-+-+-+-+-+-+-+-+-+-+-+-+-+-+-+-+-+-+-+-+-+-+-+

BASS


Verse 0:15/1:33
1-------------------------------------------------------------------------|
2-------------------------------------------------------------------------|
3-------------------------------------------------------------------------|
4----0------0-2-0-4-2-0--------4--------0-4-6-7---------------------------|


Pre-chorus 0:41/2:00/2:54
1-------------------------------------------------------------------------|
2-------------------------------------------------------------------------|
3-------------------------------------------------------------------------|
4------7---7-7\----3---3-3----------10--10-10\----6---6-6-----------------|


Chorus 0:55/2:13/3:08
1--------------------------------------------------------------------------|
2--------------------------------------------------------------------------|
3--------------------------------------------------------------------------|
4-7--7-7-7-7-7-7---3--3-3-3-3-3-3---10--10-10-10-10-10-10---10h12-(x7)*-10-|

*Those hammers are very difficult, Ben is so special...:)


Interlude 1:21
1-------------------------------------------------------------------------|
2-------------------------------------------------------------------------|
3------------5--4-2-0-4---------------------------------------------------|
4---0----------------------------4-------0-4-6-6b7------------------------|


Soloed Bass 2:40/3:51
1-------------------------------------------------------------------------|
2-------------------------------------------------------------------------|
3-------------------------------------------------------------------------|
4----0-2-0-4-2-0------4-2-0-2-0-----0-2-2-4-2-0-------4-2-0-2-0-----------|


Bridge 2:28/3:37
1-------------------------------------------------------------------------|
2-------------------------------------------------------------------------|
3-------------------------------------------------------------------------|
4--------3----3----------6---6---6----------------------------------------|


Outtro 4:04
1-------------------------------------------------------------------------|
2-------------------------------------------------------------------------|
3-------------------------------------------------------------------------|
4----0-2-0-4-2-0-------4-2-0-2-0----0-2-0-4-2-0---------------------------|



Corrections to: classic696@gmail.com
comments
We did not receive enough feedback on this tab! Please rate:
print report bad tab
1 2 3 4 5
I want to post or [tab]
guest
You may want to rate the tab now too:
select rating
Please do not post tabs as comments. Select "correction" instead!