Oops, an error
Loading. Please wait.

Boot Camp Bass

version 1
version 1

Whole song

Interactive

457 views 6 this week
no commentswrite comment
1 2 3 4 5
1 last vote to show rating
add to favorites
launch autoscroll
font size
0
reset
guitar tuner
×
Best way to learn
"Boot Camp"
Autoscroll
slow
fast
+/-
esc
set tempo
stop
Author
Difficulty
Tuning
intermediate
D A D G
Soundgarden - "Boot Camp"
Bass tuning: DADG
tabbed by jjhand

Please rate my tabs and others will check them out too.
After 10 bars of Guitar intro, start playing

[Bass Verse Riff]
 play 2x:
G|---------------------|----------------------|
D|---------------------|----------------------|
A|---------------------|----------------------|
D|-0----5/7------------|-0----5\3-------------|

continue here:
G|--------------|--------------|--------------|
D|--------------|--------------|--------------|
A|-3------------|--------------|-/5-----------|
D|--------------|-1------------|--------------|

G|--------------|--------------|--------------|
D|--------------|--------------|--------------|
A|--------------|--------------|--------------|riff
D|-3------------|-6------------|-8------------|ends

Replay Bass verse Riff when vocals enter


[Prechorus]
G|---------------------|----------------------|
D|---------------------|----------------------|
A|---------------------|----------------------|
D|-0----5/7------------|-0----5\3-------------|


[Chorus] 

G|--------------|---------------|
D|--------------|---------------|
A|-3------------|---------------|     play 4x
D|--------2-----|-3------6------|
"Far Away  ....  Far away from here"



Play Prechorus 2x

Ending note
G|--------------|
D|--------------|
A|-3------------|
D|--------------|


*************************************

/ and \ are slides

*************************************
Suggest correction
Give kudos to tab author, rate the tab!
1 2 3 4 5
comments
print report bad tab
guest
You may want to rate the tab now too:
select rating
Wanna post a correction for this tab? Suggest correction