Oops, an error
Loading. Please wait.

Burden In My Hand Tab

version 3
version 3

Whole song

Interactive

1,796 views 15 this week
no commentswrite comment
1 2 3 4 5
please rate
add to favorites
launch autoscroll
font size
0
reset
how to read this tab
guitar tuner
Autoscroll
slow
fast
+/-
esc
set tempo
stop
Help us to improve Ultimate-Guitar.com Take our survey!
×
Author
Difficulty
Capo
intermediate
5th fret
Title:       Burden in My Hand
Composers:   Chris Cornell
Group:       Soundgarden
Arranger:    Mike Forgette

My goal was to arrange it so I did not have to put my guitar in open C tuning.  It 
sounds great on a 12-string.

(Capo 5)

Verse
  G                   G7   G13 G7         C/F    Bb/F
e----------------------------0-----------------------------|
b-----3---3-----3---------3--3-3----3---------3------3-----|
g-----0---0-----0---------0--0-0----0---------0------3-----|
d-----0---0-----0---------3----3----3---------2------3-----|
a---------------------------------------------3------1-----|
e-3-3---------3-------3-3---------3-------1-1----1-1-------|

  G       A G
e-------------------------|
b---0--0--2-0----0--------|
g---0--0--2-0----0--------|
d---0--0--2-0----0--------|
a-------------------------|
e-3------------3----------|


Prechorus
          Bb  C   D  D11    D                   Bb F   (C)
e-------------0------3-3-3--2-2-2--    ------------1---(0)-|
b---------3---1---3--3-3-3--3-3-3--    ---------3--1---(1)-|
g---------3---0---2---------------- x2 ---------3--2---(0)-|
d-3h5p3p0-3---2---0----------------    -3h5p3p0-3--3---(2)-|
a---------1---3---0----------------    ---------1--3---(3)-|
e----------------------------------    --------------------|

  Bb C Bb C         Bb C Bb   G    G7
e-------------     --------------------|
b--3\5-3--1-1-     --3\5-3-------------|
g--3\5-3--0-0-     --3\5-3-------0-----|
d--3\5-3--2-2- X2  --3\5-3-------0-3~--|
a--1\3-1--3-3-     --1\3-1----2----2~--|
e-------------     -----------3----3~--|




Chorus
   G  G13    F    Eb Bb     F   Db  C
e--0--(0)----1--------------1------------------------------|
b--0--(3)----1----4---3-----1----6--5----------------------|
g--0--(0)----2----3---3-----2----6--5----------------------|
d--0--(3)----3----1---3-----3----6--5----------------------|
a--2--(2)----3----1---1-----3----4--3----------------------|
e--3--(3)----1--------------1----4--3----------------------|


Bridge
  Eb   Eb7    G   G7    Bb C Bb    D    Dm
e--------------------------------------------------------|
b-----1-2----------------3\5-3--------4-5----------------|
g--3~~~~3-----0~~~~------3\5-3-----6~~~~6----------------|
d--1~~~~1-----0--2-3-----3\5-3-----6~~~~6----------------|
a--1~~~~1-----2~~~~2-----1\3-1-----4~~~~4----------------|
e-------------3~~~~3---------------4~~~~4----------------|

   G   G7    Bb C Bb      F   Db  C
e-------------------------1--------------------------------|
b-------------3\5-3-------1----6--5------------------------|
g--0~~~~------3\5-3-------2----6--5------------------------|
d--0--2-3-----3\5-3-------3----6--5------------------------|
a--2~~~~2-----1\3-1-------3----4--3------------------------|
e--3~~~~3-----------------1----4--3------------------------|


Outro
   G    G7
e-----------|
b-----------|
g-----0-----|
d-----0-3~--|
a--2----2~--|
e--3----3~--|
Suggest correction
Give kudos to tab author, rate the tab!
1 2 3 4 5
comments
print report bad tab
guest
You may want to rate the tab now too:
select rating
Wanna post a correction for this tab? Suggest correction