Oops, an error
Loading. Please wait.

Cold Bitch Bass Tab

310 views 1 this week
no commentswrite comment
1 2 3 4 5
please rate
add to favorites
launch autoscroll
font size
0
reset
guitar tuner
Autoscroll
slow
fast
+/-
esc
set tempo
stop
Help us to improve Ultimate-Guitar.com Take our survey!
×
Cold Bitch, by
Soundgarden, found as
Track 2, on
Spoonman single, being in length
5:22, hereby tabbed by
Rigel Freden 

This is a really cool song.  I would advise picking this single up purely for the song if
it is available in any way.  (e-mail me and I'll try to come up with an mp3 for it).  Better yet, get it from Napster!

Dropped D tuning.

b is anything between 1/4 and 1/2 bend, v is vibrato
Fades in with open (g?) string feedback and Chris Cornell screaming.
notations in par () are optional or "maybes"
Please note also that this is really the guitar tab, so the 1/4 bends
probably aren't accurate. 

Funky time to start with.  (~4/4 beat but difficult to count in 4/4).  If you can time it, submit the correction.

Bass--guitar is the same except for solo
Verse riff
G|---5-4b-------------------------------------------------------|
d|---------------------5-4b-----------------(0)-1---0-3-1-0-3---|
A|----------2-1(b)-0------------------6-5(\)(0)-1---0-3-1-0-3---|
D|-0------0----------0------0-5-4-3-0--------0--1---0-3-1-0-3---|

Verse variation
G|---5-4b---4-5-7-----------------------------------------------|
d|---------------------5-4b---4-5-7---------(0)-1---0-3-1-0-3---|
A|------------------------------------6-5(\)(0)-1---0-3-1-0-3---|
D|-0------0----------0------0-------0--------0--1---0-3-1-0-3---|

Chorus riff
     1
A||4---6-5(b)----------8-7b-6(v)-|
D||4-0--------0-7-6b-0-----------|

Bridge(immediately after 2nd and last Choruses (Chori?))
G||--8-----8----------10------10---------------------------------|
d||4:--8-----8----8------10------10---10----10-------10----------|
A||4:----6------6---8-------8-------8----------10-------10----10-|
D||--------------------------------------10-------10-------10----|

Pre-solo
     1 2 3 4    1 2 3 4    1 2 3 4
G||------5-4b-|----------|---------|
d||4:---------|-----5-4b-|---------|
A||4:---------|----------|-----4-5-|
D||--0--------|----------|---------|

Solo (this is how it starts)
B|--13b15-----------|

bass riff during solo
d|4:--3-----3-------|
A|4:----3-----3---3-|
D|--3-----3-----3---|

feedback until drums dictate otherwise, then
play verse riff 4 times
play verse variation twice
play chorus 4 times
play verse riff thrice
play verse variation once
play bridge once
play pre-solo 4 times
play solo while bass does its thing
(there is actually a guitar doing the bass's thing during this part too but don't worry
about that because this is the only point where there are two guitars playing at once).
play chorus 4 times
play bridge once
end on D|-0------|
Suggest correction
What's this?
You can suggest a correction to this tab. Community and Mods will review your correction and vote to approve or reject it.
comments
We did not receive enough feedback on this tab! Please rate:
print report bad tab
1 2 3 4 5
guest
You may want to rate the tab now too:
select rating
Please do not post tabs as comments. Select "correction" instead!