Oops, an error
Loading. Please wait.

Cold Bitch Tab

version 1
version 1

Whole song

1,037 views 3 this week
no commentswrite comment
1 2 3 4 5
1 last vote to show rating
add to favorites
launch autoscroll
font size
0
reset
how to read this tab
guitar tuner
Autoscroll
slow
fast
+/-
esc
set tempo
stop
Author
Tuning
D A D G B E
E|-----------------------------------------------------------------|
B|-----------------------------------------------------------------|
G|-----------------------------------------------------------------|
D|-0-10-9-0-9-8-7-0-5-4-0-5-4-3-0-----0-1---0-3---1---0-3~---------|
A|-0------0-9-8-7-0-----0-5-4-3-0-6-5-0-1---0-3---1---0-3~---------|
D|-0------0-9-8-7-0-----0-5-4-3-0-----0-1---0-3---1---0-3~---------|
  aaaaaye!

E|---------------------------------|
B|---------------------------------|
G|---------------------------------|
D|---------------------------------|
A|---6-5------------/8-7-6---------|
D|-0-----0-6-5-0-3-----------------|
  but in your heart I..freeze

E|----------------------------------------------------|
B|----------------------------------------------------|
G|-8---8----10---10------5--5-------------------------|
D|--8---8-8---10---10-10--5--5-5----------------------|
A|---6---6------8----8-----3--3-----------------------|
D|-------------------------------0~-------------------|
                                      I freeze....

E|-----------------------------------|
B|-----------------------------------|
G|-----------------------------------|
D|-----10-9--------------------------|
A|-0------------10-9-----4-5---------|
D|-0----------0--------0-------------|
Suggest correction
Give kudos to tab author, rate the tab!
1 2 3 4 5
comments
print report bad tab
guest
You may want to rate the tab now too:
select rating
Wanna post a correction for this tab? Suggest correction