Oops, an error
Loading. Please wait.

Day I Tried To Live Bass Tab

version 2
version 2

Whole song

3,728 views 3 this week
no commentswrite comment
1 2 3 4 5
x 8
add to favorites
launch autoscroll
font size
0
reset
guitar tuner
Autoscroll
slow
fast
+/-
esc
set tempo
stop
Help us to improve Ultimate-Guitar.com Take our survey!
×
Author
Difficulty
novice
Soundgarden - The Day I Tried To Live
Tuning: Standard


Verse - 15 beats per measure
|-----------------------------------------------------------------|
|-----------------------------------------------------------------|
|-----------------------------------------------------------------|
|-12-12-12-12-12---12-11-0-10-0-9-0-8-8-8-8-8---8-7-0-5-5-5-5-5-5-|x10


Chorus - 4/4 time
|-----------------------|-----------------------|
|-----------------------|-----------------------|
|-----------------------|-10--10-10-10-10-10-10-|
|-7----7--7--7--7--7--7-|-8---8--8--8--8--8--8--|

|-----------------------|-----------------------|
|-----------------------|-----------------------|
|-----------------------|-11--11-11-11-11-11-11-|
|-12--12-12-12-12-12-12-|-9---9--9--9--9--9--9--|

|-----------------------|-----------------------|
|-----------------------|-----------------------|
|-----------------------|-10--10-10-10-10-10-10-|
|-7----7--7--7--7--7--7-|-8---8--8--8--8--8--8--|

|-----------------------|-----------------------|
|-----------------------|-----------------------|
|-----------------------|-11--11-11-11-11-11-11-|
|-12--12-12-12-12-12-12-|-9---9--9--9--9--9--9--|

|-----------------------|-----------------------|
|-----------------------|-----------------------|
|-----------------------|-----------------------|
|-12--12-12-12-12-12-12-|-7----7--7--7--7--7--7-|

    15 beats again
|---------------------------------------------------------|
|---------------------------------------------------------|
|---------------------------------------------------------|
|-9-9-9-9-9---9-8-0-7-0-6-0-5-5-5-5-5---5-4-0-2-2-2-2-2-2-|



Verse
|-----------------------------------------------------------------|
|-----------------------------------------------------------------|
|-----------------------------------------------------------------|
|-12-12-12-12-12---12-11-0-10-0-9-0-8-8-8-8-8---8-7-0-5-5-5-5-5-5-|x6
 


Chorus - 4/4 time
|-----------------------|-----------------------|
|-----------------------|-----------------------|
|-----------------------|-10--10-10-10-10-10-10-|
|-7----7--7--7--7--7--7-|-8---8--8--8--8--8--8--|

|-----------------------|-----------------------|
|-----------------------|-----------------------|
|-----------------------|-11--11-11-11-11-11-11-|
|-12--12-12-12-12-12-12-|-9---9--9--9--9--9--9--|

|-----------------------|-----------------------|
|-----------------------|-----------------------|
|-----------------------|-10--10-10-10-10-10-10-|
|-7----7--7--7--7--7--7-|-8---8--8--8--8--8--8--|

|-----------------------|-----------------------|
|-----------------------|-----------------------|
|-----------------------|-11--11-11-11-11-11-11-|
|-12--12-12-12-12-12-12-|-9---9--9--9--9--9--9--|

|-----------------------|-----------------------|
|-----------------------|-----------------------|
|-----------------------|-----------------------|
|-12--12-12-12-12-12-12-|-7----7--7--7--7--7--7-|

    15 beats again
|---------------------------------------------------------|
|---------------------------------------------------------|
|---------------------------------------------------------|
|-9-9-9-9-9---9-8-0-7-0-6-0-5-5-5-5-5---5-4-0-2-2-2-2-2-2-|




Bridge - 4/4 time

|-----------------|-----------------|-----------------|-----------------|
|-----------------|-----------------|-----------------|-----------------|
|-----------------|-----------------|-----------------|-----------------|
|-0---------------|-----------------|-----------------|-----------------|

|-----------------|-----------------|
|-----------------|-----------------|
|-----------------|-0---------------|  play 3x, short notes
|-0---------------|-----------------|

|-----------------|-----------------|
|-----------------|-6---------------| short notes again
|-7---------------|-----------------|
|-----------------|-----------------|





Verse - 15 beats per measure again

|-----------------------------------------------------------------|
|-----------------------------------------------------------------|
|-----------------------------------------------------------------|
|-12-12-12-12-12---12-11-0-10-0-9-0-8-8-8-8-8---8-7-0-5-5-5-5-5-5-|x1

|---------------------------------------------------------|
|---------------------------------------------------------|
|---------------------------------------------------------|
|-9-9-9-9-9---9-8-0-7-0-6-0-5-5-5-5-5---5-4-0-2-2-2-2-2-2-|x6




Chorus - 4/4 time
|-----------------------|-----------------------|
|-----------------------|-----------------------|
|-----------------------|-10--10-10-10-10-10-10-|
|-7----7--7--7--7--7--7-|-8---8--8--8--8--8--8--|

|-----------------------|-----------------------|
|-----------------------|-----------------------|
|-----------------------|-11--11-11-11-11-11-11-|
|-12--12-12-12-12-12-12-|-9---9--9--9--9--9--9--|

|-----------------------|-----------------------|
|-----------------------|-----------------------|
|-----------------------|-10--10-10-10-10-10-10-|
|-7----7--7--7--7--7--7-|-8---8--8--8--8--8--8--|

|-----------------------|-----------------------|
|-----------------------|-----------------------|
|-----------------------|-11--11-11-11-11-11-11-|
|-12--12-12-12-12-12-12-|-9---9--9--9--9--9--9--|

|-----------------------|-----------------------|
|-----------------------|-----------------------|
|-----------------------|-----------------------|
|-12--12-12-12-12-12-12-|-7----7--7--7--7--7--7-|

    15 beats again
|---------------------------------------------------------|
|---------------------------------------------------------|
|---------------------------------------------------------|
|-9-9-9-9-9---9-8-0-7-0-6-0-5-5-5-5-5---5-4-0-2-2-2-2-2-2-|




Ending Verse Riff
|-----------------------------------------------------------------|
|-----------------------------------------------------------------|
|-----------------------------------------------------------------|
|-12-12-12-12-12---12-11-0-10-0-9-0-8-8-8-8-8---8-7-0-5-5-5-5-5-5-|x4


Ending
|-----------------|
|-7--6------------|
|-------7---------|
|-----------------|



Key:
| /  slide up
| \  slide down
| h  hammer-on
| p  pull-off
| ~  vibrato
| +  harmonic
| x  Mute note

Suggest correction
comments
print report bad tab
guest
You may want to rate the tab now too:
select rating
Wanna post a correction for this tab? Suggest correction