Oops, an error
Loading. Please wait.

Entering Tab

287 views 1 this week
no commentswrite comment
1 2 3 4 5
please rate
add to favorites
launch autoscroll
font size
0
reset
how to read this tab
guitar tuner
Tab Pro tools
  • play this tab
  • loop segment
  • change instrument
  • show fretboard
  • metronome
×
Best way to learn
"Entering"
Autoscroll
slow
fast
+/-
esc
set tempo
stop
Contributor
-------------------------------------------------------------------------------
                             ENTERING - Soundgarden
-------------------------------------------------------------------------------
Tabbed by: Rory Jackson
Email: rj--13@hotmail.com

Tuning: Standard

Intro:
  (after drums)                     X4
e|---------------|--------------------|
B|---------------|--------------------|
G|---------------|--------------------|
D|---------------|-----------0~~------|
A|---------------|------2~~-------0~~-|
E|-7-4-3-4-7-4-3-|-0~~----------------|
   + + + + + + +

Verse:
e|-------------------------------3~~----------------------------|
B|-------------------------------3~~----------------------------|
G|-------------------------------0~~----------------------------|
D|--------------------------------------------------------------|
A|-7--7--7-5-7--7/10--10-10-5--4------5-4-5-5/7--7-0h4h5-7p5----|
E|----------------------------------------------------------7p5-|

                                                             X3
e|------------------------------3~~----------------------------|
B|------------------------------3~~----------------------------|
G|------------------------------0~~----------------------------|
D|-------------------------------------------------------------|
A|-----7-5-7--7/10--10-10-5--4------5-4-5-5/7--7-0h4h5-7p5-----|
E|-0-0-----------------------------------------------------7p5-|

Then over top of another guitar playing the verse
e|---------------------------------|
B|---------------------------------|
G|---------14b-14b-14---14b-14b--12|
D|---------------------------------|
A|---------------------------------|
E|-0-0--0--------------------------|

Then                X3
e|--------------------|
B|--------------------|
G|--------------------|
D|-----------0~~------|
A|------2~~-------0~~-|
E|-0~~----------------|

e|---------------12h15p12h15p12h15p12h15p12h15p12h15p12-|
B|------------------------------------------------------|
G|------------------------------------------------------|
D|-----------0~~----------------------------------------|
A|------2~~---------------------------------------------|
E|-0~~--------------------------------------------------|

e|-----15h17p15h17p15h17p15h17p15h17p15h17p15-17b-|
B|------------------------------------------------|
G|------------------------------------------------|
D|------------------------------------------------|
A|-0~~--------------------------------------------|
E|------------------------------------------------|

Then repeat the verse, then that bit again, then the verse.

Outro:                                               X4
e|-----------------------------------------------------|
B|-----------------------------------------------------|
G|-----------------------------------------------------|
D|-------------7-7-7-6--6-6--5--5-5--5-5-------5-------|
A|----------------------------------------4--4---0--4h5|
E|-0--0-0--0-0-----------------------------------------|

************************************

| /   slide up
| \   slide down
| h   hammer-on
| p   pull-off
| ~   vibrato
| +   harmonic
| x   Mute note
| b   Bend
| pb  Pre-bend
| br  Bend release
| pbr Pre-bend release
| brb Bend release bend

************************************
comments
We did not receive enough feedback on this tab! Please rate:
print report bad tab
1 2 3 4 5
I want to post or [tab]
guest
You may want to rate the tab now too:
select rating
Please do not post tabs as comments. Select "correction" instead!