Oops, an error
Loading. Please wait.

Eyelids Mouth Bass Tab

13 views 1 this week
no commentswrite comment
1 2 3 4 5
3 more votes to show rating
add to favorites
launch autoscroll
font size
0
reset
guitar tuner
Autoscroll
slow
fast
+/-
esc
set tempo
stop
Help us to improve Ultimate-Guitar.com Take our survey!
×
Author
Difficulty
intermediate
About this tab version
First Bass Tab for entire song. Was this info helpful? Yes No
Artist:    Soundgarden
Song:      Eyelid's Mouth
Tuning:    Standard
Tabbed by: jjhand


Intro (0:09)

G|-------------8---6---|-----------------|
D|---------6/8---6-----|-6h8-------------|
A|-------------------6-|-----------------|    play 3x
E|---------------------|-----------------|


G|---------------------|-------------8---6---|-----------------|
D|-6------6-5-4--------|---------6/8---6-----|-6h8-------------|
A|---------------------|-------------------6-|-----------------|
E|---------------------|---------------------|-----------------|

G|-------------8---6---|-----------------|---------------------|
D|---------6/8---6-----|-6h8-------------|-6------6-5-4--------|
A|-------------------6-|-----------------|---------------------|
E|---------------------|-----------------|---------------------|



Verse 

G|-------------8---6---|-----------------|
D|---------6/8---6-----|-6h8-------------|
A|-------------------6-|-----------------|
E|---------------------|-----------------|

G|-------------8---6---|-----------------|---------------------|
D|---------6/8---6-----|-6h8-------------|-6------6-5-4--------|
A|-------------------6-|-----------------|---------------------|
E|---------------------|-----------------|---------------------|

G|-------------8---6---|-----------------|
D|---------6/8---6-----|-6h8-------------|
A|-------------------6-|-----------------|
E|---------------------|-----------------|

G|-------------8---6---|-----------------|---------------------|
D|---------6/8---6-----|-6h8-------------|-6------6-5-4--------|
A|-------------------6-|-----------------|---------------------|
E|---------------------|-----------------|---------------------|

G|---------------------|-------------------|
D|---------2--4\2/4\2--|--------6-6--------|
A|---------------------|-6------4-4--------|
E|---------------------|-------------------|



Chorus 

G|--------------------|--------------------|--------------------|
D|--------------------|--------------------|--------------------|
A|--------------------|--------------------|--------------------|
E|-6-6-----4-5-4-2----|-6-6-----4-5-4-2----|-6-6-----4-5-4-2----|

G|--------------------|
D|--------------------|
A|--------------------|
E|-6------6------6----|

G|--------------------|--------------------|--------------------|
D|--------------------|--------------------|--------------------|
A|--------------------|--------------------|--------------------|
E|-6-6-----4-5-4-2----|-6-6-----4-5-4-2----|-6-6-----4-5-4-2----|

G|--------------------|
D|--------------------|
A|--------------------|
E|-6------6------6----|

G|--------------------|--------------------|--------------------|
D|--------------------|--------------------|--------------------|
A|--------------------|--------------------|--------------------|
E|-6-6-----4-5-4-2----|-6-6-----4-5-4-2----|-6-6-----4-5-4-2----|




Resume Verse Riff - Verse 2



Play Chorus Again



Solo - Play Verse Riff until 3:22


Repeated Ending Riff (3:23 to end of song)
G|---------------------------|
D|---------------------------|
A|----------------------4----|
E|-6-6-6--6--6-6-6-6-4-------|

Key:
| /  slide up
| \  slide down
| h  hammer-on
| p  pull-off
| ~  vibrato
| +  harmonic
| x  Mute note
Suggest correction
Give kudos to tab author, rate the tab!
1 2 3 4 5
comments
print report bad tab
guest
You may want to rate the tab now too:
select rating
Wanna post a correction for this tab? Suggest correction