Oops, an error
Loading. Please wait.

Face Pollution Bass Tab

version 1
version 1

Whole song

  • Complete bass tab version. Includes all sections.

Interactive

7 views 3 this week
no commentswrite comment
1 2 3 4 5
3 more votes to show rating
add to favorites
launch autoscroll
font size
0
reset
guitar tuner
Autoscroll
slow
fast
+/-
esc
set tempo
stop
Help us to improve Ultimate-Guitar.com Take our survey!
×
Author
Difficulty
Tuning
intermediate
D A D G B E
About this tab version
Complete bass tab version. Includes all sections. Was this info helpful? Yes No
Artist:      Soundgarden
Song:        Face Pollution
Bass Tuning: DADG
Tabbed by:   jjhand



[Verse] - play 4x in intro, then 8x during lyrics
G|----------------------------|
D|----------------------------|
A|----------------------------|
D|-7p0---3----5p4-5p4-5p4-0---|



[Chorus 1]
G|-------------|----------------------------------------|
D|-------------|----------------------------------------|
A|-------------|----------------------------------------|
D|-12-12-15-12-|-10h12-12-0---15p12-15p12-12-12---15p12-|
   one beat

G|----------------------------------------|
D|----------------------------------------|
A|----------------------------------------|
D|-10h12-12-0---15p12-15p12-12-12---15p12-|

G|----------------------------------------|
D|----------------------------------------|
A|----------------------------------------|
D|-10h12-12-0---15p12-15p12-12-12---15p12-|

G|----------------------------------------|
D|----------------------------------------|
A|----------------------------------------|
D|-10h12-12-0---15p12-15p12-12-12---15p12-|



Play Verse again 12x


[Chorus 2]
G|-------------|----------------------------------------|
D|-------------|----------------------------------------|
A|-------------|----------------------------------------|
D|-12-12-15-12-|-10h12-12-0---15p12-15p12-12-12---15p12-|
   one beat

G|----------------------------------------|
D|----------------------------------------|
A|----------------------------------------|
D|-10h12-12-0---15p12-15p12-12-12---15p12-|

G|----------------------------------------|
D|----------------------------------------|
A|----------------------------------------|
D|-10h12-12-0---15p12-15p12-12-12---15p12-|

G|------------------------------|
D|------------------------------| 3/4 time
A|------------------------------|
D|-10h12-12-0---15p12-13---13---|

G|----------------------------------------|
D|----------------------------------------|
A|----------------------------------------|
D|-10h12-12-0---15p12-15p12-12-12---15p12-|

G|----------------------------------------|
D|----------------------------------------|
A|----------------------------------------|
D|-10h12-12-0---15p12-15p12-12-12---15p12-|

G|----------------------------------------|
D|----------------------------------------|
A|----------------------------------------|
D|-10h12-12-0---15p12-15p12-12-12---15p12-|

G|----------------------------------------|
D|----------------------------------------|
A|----------------------------------------| hold last note
D|-10h12-12-0---15p12-15p12---0-----------|


[Bridge] 6/4 time
G|-------------------------------------------|
D|-10-9---7-----7------------10-9---7---7----|
A|----------8-7---8-7---5-------------8------|
D|-------------------------------------------|

G|-9-10--10-11---------12-14-----------------|
D|---------------12-14------------12-14-10---|
A|---------------------------10-12-----------|
E|-------------------------------------------|

G|-9-10--10-11---------12-14-----------------|
D|---------------12-14------------12-14-10---|
A|---------------------------10-12-----------|
E|-------------------------------------------|

G|-9-10--10-11---------12-14-----------------|
D|---------------12-14------------12-14-10---|
A|---------------------------10-12-----------|
E|-------------------------------------------|


[Face Pollution Riff] 5/4 time
G|------------------------------------|
D|------------------------------------|
A|------------------------------------|  play 4x
D|-15\12-15\12-15\12-0----10h12-10~---|



Play Bridge riff again

Play Face Pollution Riff again


Ending - 
G|-------------------------|
D|-------------------------|
A|-------------------------|  play 9x
D|-0-----3-----5--4--0-----|


Key:
| /  slide up
| \  slide down
| h  hammer-on
| p  pull-off
| ~  vibrato
| +  harmonic
| x  Mute note
Suggest correction
Give kudos to tab author, rate the tab!
1 2 3 4 5
comments
print report bad tab
guest
You may want to rate the tab now too:
select rating
Wanna post a correction for this tab? Suggest correction