Oops, an error
Loading. Please wait.

Fell On Black Days Tab

version 1
version 1

Whole song

Interactive

82,350 views 24 this week
no commentswrite comment
1 2 3 4 5
x 11
add to favorites
launch autoscroll
font size
0
reset
how to read this tab
guitar tuner
Autoscroll
slow
fast
+/-
esc
set tempo
stop
Help us to improve Ultimate-Guitar.com Take our survey!
×
FELL ON BLACK DAYS by Soundgarden
from Superunknown
-----------------

play this 13 times           another guitar plays this just before vocals kick in   

E---------------------------------      E-------             
B---9--------4---------1-1-1-1----      B---5~--  
G---9--------4--2--0---0-0-0-0----      G-------
D---9-----4br4--2--0---2-2-2-2----      D-------
A---7-----2--2--2--0---3-3-3-3----      A-------
E---------------------------------      E-------


then play this

E---------------2-2-2-2-----------
B--4--4--4--4---3-3-3-3--1-1------
G--4--4--4--4---2-2-2-2--0-0------
D--4--2--4--2---0-0-0-0--2-2------
A--2--2--2--2------------3-3------
E---------------------------------

then back to first progression


the next time around this part is added


 How would I know that this would be my fate                  How would I know   

E-----------------------------------------------------------------------------
B--7---7---7---9-------4---------1-1-1-1---9-------4--------5---7---7---7---9-
G--7---7---7---9-------4--2--0---0-0-0-0---9-------4--2--0--5---7---7---7---9-
D--7---7---7---9----4br4--2--0---2-2-2-2---9----4br4--2--0--5---7---7---7---9- etc
A--5---5---5---7----2--2--2--0---3-3-3-3---7----2--2--2--0--3---5---5---5---7-
E-----------------------------------------------------------------------------


 
here's my scrappy version of the solo, if anyone has a better one by all means update my file

        hooooooooooooooooooooooooooooooooooooooooooooooo     

E---------------------------------------------------------
B------5---9---10----12h13p12----12-15-13-12-12-12--------
G-----------------------------14-------------------14\sl-- X 2
D--4------------------------------------------------------
A--2------------------------------------------------------
E---------------------------------------------------------

on third time play this


E-----------------------------------------------------------
B------5---9---10----12h13p12----12-15-13-12h13p12-12----12-
G-----------------------------14----------------------14----
D--4--------------------------------------------------------
A--2--------------------------------------------------------
E-----------------------------------------------------------


E--------------------------------------
B--12h13p12-12----15-15-13-12----12\sl-
G--------------14-------------14-------
D--------------------------------------
A--------------------------------------
E--------------------------------------

Suggest correction
comments
print report bad tab
guest
You may want to rate the tab now too:
select rating
Wanna post a correction for this tab? Suggest correction