Oops, an error
Loading. Please wait.

Get On The Snake Bass Tab

version 1
version 1

Whole song

Interactive

817 views 1 this week
no commentswrite comment
1 2 3 4 5
x 3
add to favorites
launch autoscroll
font size
0
reset
guitar tuner
Autoscroll
slow
fast
+/-
esc
set tempo
stop
Help us to improve Ultimate-Guitar.com Take our survey!
×
Author
Difficulty
intermediate
Song: Get on the Snake
Artist: Soundgarden
Album: Louder Than Love

Tabbed by: Sp00nman94

Tuning: Standard


Intro
G|-------------------------------------------------------------------------|
D|-------------------------------------------------------------------------|
A|-------------------------------------------3-2-0-------------------------|
E|--3--5-3-5-3-5----3--5-3-5-3-5----3--5-3-5------------3--5-3-5-3-5-------|

Intro (Last Time)
G|-------------------------------------------------------------------------|
D|-------------------------------------------------------------------------|
A|-------------------------------------------3-2-0-------------------------|
E|--3--5-3-5-3-5----3--5-3-5-3-5----3--5-3-5-------------------------------|

Riff
G|-------------------------------------------------------------------------|
D|-------------------------------------------------------------------------|
A|--7--5------------7-5----------------------------------------------------|
E|---------7-5-3-0-------7-5-3-0-------------------------------------------|

Riff (Last Time)
G|---------------------------------------------------------------------------|
D|---------------------------------------------------------------------------|
A|--7--5-------------7-5---------------5-------------------------------------|
E|---------7-5-3-5--------7-5-3-6----7---7-0---------------------------------|


I’m missing the second solo part because this is my first tab and I can’t figure it out. 
would listen to the recording to get order, timing, etc down.
Suggest correction
Give kudos to tab author, rate the tab!
1 2 3 4 5
comments
print report bad tab
guest
You may want to rate the tab now too:
select rating
Wanna post a correction for this tab? Suggest correction