Oops, an error
Loading. Please wait.

Halfway There Bass Tab

7 views 1 this week
no commentswrite comment
1 2 3 4 5
3 more votes to show rating
add to favorites
launch autoscroll
font size
0
reset
guitar tuner
Autoscroll
slow
fast
+/-
esc
set tempo
stop
Help us to improve Ultimate-Guitar.com Take our survey!
×
Author
Difficulty
intermediate
About this tab version
First Bass tab. All parts are there. Was this info helpful? Yes No
Artist:    Soundgarden
Song:      Halfway There
Tuning:    Standard Bass
Tabbed by: jjhand


Verse 1 (0:27)
G|---------------------|---------------------|-------------------|
D|---------------------|---------------------|-------------------|
A|-3----3--------------|---------------------|------------6------|
E|-----------4-4-----x-|-5------5-0-0------x-|-4------4-4__----0-|

G|---------------------|---------------------|-------------------|
D|---------------------|---------------------|-------------------|
A|-3----3--------------|-3----3--------------|-------------------|
E|-----------4-4-----4-|-----------4-4-----4-|-5------5-0-0----x-|

G|---------------------|-----------------|
D|---------------------|-----------------|
A|-----------6-6-------|-----------------|
E|-4-------4---------4-|-0-0-0-0-0-0-0-0-|


Chorus

G|----------------------|----------------------|
D|----------------------|----------------------|
A|----------------------|-3----3---------------|
E|-1----1----4-4------4-|-----------0-0------0-|

G|----------------------|----------------------|
D|----------------------|----------------------|
A|----------------------|-3----3---------------|
E|-1----1----4-4------4-|-----------0-0------0-|

G|----------------------|----------------------|
D|----------------------|----------------------|
A|----------------------|-3----3---------------|
E|-1----1----4-4------4-|-----------0-0------0-|

G|----------------------|----------------------|
D|----------------------|----------------------|
A|----------------------|-5--------------------|
E|-5----5----3-3------3-|----------------------|

   6 beats - this measure only
G|----------------------|
D|----------------------|
A|------------5---------|
E|-1-1--1-1-1---4-------|



Turnaround - before Verse 2
G|----------------------|----------------------|
D|----------------------|----------------------|
A|-3----3---------------|-3----3---------------|
E|---------4-4-4------4-|-----------4-4------4-|

G|----------------------|----------------------|
D|----------------------|----------------------|
A|-3----3---------------|-3----3---------------|
E|---------4-4-4------4-|---------4-4--------4-|


Verse 2 - Same as Verse 1


Play Chorus Again


Solo - Play Chorus Riff Again


Last Verse - Same as before


Final Chorus - 
G|----------------------|----------------------|
D|----------------------|----------------------|
A|----------------------|-3----3---------------|
E|-1----1----4-4------4-|-----------0-0------0-|

G|----------------------|----------------------|
D|----------------------|----------------------|
A|----------------------|-3----3---------------|
E|-1----1----4-4------4-|-----------0-0------0-|

G|----------------------|----------------------|
D|----------------------|----------------------|
A|----------------------|-3----3---------------|
E|-1----1----4-4------4-|-----------0-0------0-|

G|----------------------|----------------------|
D|----------------------|----------------------|
A|----------------------|-5--------------------|
E|-5----5----3-3------3-|----------------------|

   6 beats                  4 beats
G|----------------------|-------------------------|
D|----------------------|-------------------------|
A|------------5---------|-3----3--3-3-3-3-3---3---|
E|-1-1--1-1-1---4-------|-------------------------|

   6 beats - 
G|----------------------|
D|----------------------|
A|------------5---------|
E|-1-1--1-1-1---4-------|


Ending Note, after guitar strums  
G|----------------------|
D|----------------------|
A|----------------------|
E|-3--------------------|


Key:
| /  slide up
| \  slide down
| h  hammer-on
| p  pull-off
| ~  vibrato
| +  harmonic
| x  Mute note
Suggest correction
Give kudos to tab author, rate the tab!
1 2 3 4 5
comments
print report bad tab
guest
You may want to rate the tab now too:
select rating
Wanna post a correction for this tab? Suggest correction