Oops, an error
Loading. Please wait.

Hands All Over Bass Tab

version 1
version 1

Whole song

  • Full bass version, includes all sections.

Interactive

7 views 1 this week
no commentswrite comment
1 2 3 4 5
3 more votes to show rating
add to favorites
launch autoscroll
font size
0
reset
guitar tuner
Autoscroll
slow
fast
+/-
esc
set tempo
stop
Help us to improve Ultimate-Guitar.com Take our survey!
×
Author
Difficulty
Tuning
intermediate
D A D G B E
About this tab version
Full bass version, includes all sections. Was this info helpful? Yes No
Artist:    Soundgarden
Song:      Hands All Over
Tuning:    DADG
Tabbed by: jjhand
Tempo: 88bpm


Intro
G|----------------|---------------|--------------|---------------|
D|----------------|---------------|--------------|---------------|
A|-5--------------|---------------|--------------|-5/17----------|
D|----------------|-0-------------|-0------------|---------------|

Main Riff (0:11)
G|----------------------------|----------------------------|
D|----------------------------|----------------------------|
A|-------------------0/5------|-------------------0/5------|
D|-0--0-0-5/7--0-0------------|-0--0-0-5/7--0-0------------|

G|----------------------------|----------------------------|
D|----------------------------|----------------------------|
A|-------------------0/5------|-------------------0/5------|
D|-0--0-0-5/7--0-0------------|-0--0-0-5/7--0-0------------|


Vocals Begin - Play Main Riff again, repeatedly 



Verse 1 (1:04 - 1:51) - Play Main Riff throughout



Chorus (1:52)
G|------------------------7---|------------------------7---|
D|-----5----------------------|-----5----------------------|
A|-3-----3-3/5-5-3---3/5------|-3-----3-3/5-5-3---3/5------|
D|----------------------------|----------------------------|

G|----------------------------|-------------------------------|
D|-----5----------------------|-----3-----------3-5-----------|
A|-3-----3-3/5-5-3---3/5--5---|-3/5---3-3p0-3/5-------3/5-3/5-|
D|----------------------------|-------------------------------|



(2:03-2:23), play Main Riff again



Verse 2 - play Main Riff again


Chorus 2 - Play Chorus Riff again


(3:22-4:14) Play Main Riff again


Bridge - play 4x

G|-----------------------7---|-----------------------7---|
D|-----------------------7---|-----------------------7---|
A|---------------------------|---------------------------|
D|-0--0-0-5/7--0-0--0-0------|-0--0-0-5/7--0-0--0-0------|

G|-----------------------7---|-----------------------7---|
D|-----------------------7---|-----------------------7---|
A|---------------------------|---------------------------|
D|-0--0-0-5/7--0-0--0-0------|-0--0-0-5/7--0-0--0-0------|



Final Chorus (4:51) - Play Chorus Riff similarly 2x


Play Main Riff again (5:12)

Ending (5:34)
G|-----------------------------|----------------------------------|
D|-----------------------------|----------------------------------|
A|-5--pick note repeatedly ----|-/17~-----------------------------|
D|-----------------------------|----------------------------------|

Key:
| /  slide up
| \  slide down
| h  hammer-on
| p  pull-off
| ~  vibrato
| +  harmonic
| x  Mute note
Suggest correction
Give kudos to tab author, rate the tab!
1 2 3 4 5
comments
print report bad tab
guest
You may want to rate the tab now too:
select rating
Wanna post a correction for this tab? Suggest correction