Oops, an error
Loading. Please wait.

Hands All Over Tab

version 2
version 2

Whole song

  • Added missing parts to previous version to make tab complete.

Interactive

19 views 3 this week
no commentswrite comment
1 2 3 4 5
3 more votes to show rating
add to favorites
launch autoscroll
font size
0
reset
how to read this tab
guitar tuner
Autoscroll
slow
fast
+/-
esc
set tempo
stop
Help us to improve Ultimate-Guitar.com Take our survey!
×
Author
Difficulty
Tuning
intermediate
D A D G B E
About this tab version
Added missing parts to previous version to make tab complete. Was this info helpful? Yes No
Soundgarden - "Hands All Over"
Album: Louder Than Love
Tuning: DADGBE
tabbed by jjhand

This was tabbed using some of Keith Barron's original on Ultimate Guitar. I completed the riffs 
using youtube footage and made the rhythms easier to read. Please rate or comment.


Intro:
e|-------------|-------------|                                 
b|-------------|-------------|
g|-7--7--7--7--|-7--7--7--7--|
d|-0--0--0--0--|-0--0--0--0--|
a|-------------|-------------|
d|-------------|-------------|

Play that 4 times on the upbeats only (no, its NOT ska) and then this:

e|---------------------|---------------------|---------------------|---------------------|
b|---------------------|---------------------|---------------------|---------------------|
g|---14---14---14---14-|---16---16---16---16-|---17---17---17---17-|---19---19---19---19-|
d|---------------------|---------------------|---------------------|---------------------|
a|-12---12---12---12---|/14---14---14---14---|-15---15---15---15---|-17---17---17---17---|
d|---------------------|---------------------|---------------------|---------------------|


[Main Riff]:
e|------------------------------|----------------------------|
b|------------------------------|----------------------------|
g|------------------------------|----------------------------|
d|-----------------------0------|---------------------0------|
a|------------------------------|----------------------------|
d|-0–-0-0-3/5–-0-0----5/12------|-0--0-0-3/5--0-0--5/12------|





[Melody Riff] - first few notes are in the last beat of the previous measure
e|----------|---------------------|----------------------|-------------------|---------------------|
b|----------|---------------------|----------------------|-------------------|---------------------|
g|----11----|-11------------11----|-11-------------11----|-11----------11b12-|-11------------11----|
d|-10----10-|-----10-10--10----10-|-----10-10---10----10-|----12-12----------|---12-12----12----12-|
a|----------|---------------------|----------------------|-------------------|---------------------|
d|----------|---------------------|----------------------|-------------------|---------------------|

e|-----------------------|-----------------------|---------------------|----------------------|
b|-----------------------|-----------------------|---------------------|----------------------|
g|-11--------------11----|-11--------------11----|-11------------11b12-|-b12r11----b12r11~----|
d|----10-10~----10----10-|----10-10~----10----10-|----12-12------------|----------------------|
a|-----------------------|-----------------------|---------------------|----------------------|
d|-----------------------|-----------------------|---------------------|----------------------|
 

Vocals come in, Main Riff continues

"Hands all over, the eastern border
You know what? I think we're falling
From composure
Hands all over western culture
Ruffling feathers and turning eagles into vultures"

"Got my arms around baby brother
Put your hands away
You're gonna kill your mother"


[Chorus] play 2x
e|---------------------------------|------------------------------|
b|---------------------------------|------------------------------|
g|-5/7-7-7-7---7-5---5-5-5-5\4-\2--|-4/5-5-5-5---5-4---5-4-5-4\2--|
d|---------------------------------|------------------------------|
a|---------------------------------|------------------------------|
d|---------------------------------|------------------------------|



[Chorus Ending] - in 2 parts, play 4x
  Guitar 1
e|-----------------------------------------------|
b|-----------------------------------------------|
g|-5/7-7--7--7--7--7--7-----7--7--7-----7--7--7--|
d|-0---0--0--0--0--0--0-----0--0--0-----0--0--0--|
a|-----------------------------------------------|
d|-----------------------------------------------|
 |
 | Guitar 2
e|--------------------------------------8--8--8--|
b|--10-10-10-10-10-10-10----8--8--8--------------|
g|-----------------------------------------------|
d|-----------------------------------------------|
a|-----------------------------------------------|
d|-----------------------------------------------|



**Verse 2 - Play Melody Riff and main riff again.
            Play Main Riff with Verse 2 vocals

Lyrics:

"Hands all over the coastal waters
The crew men thank her
Then lay down their oily blanket
Hands all over the inland forest
In a striking motion trees fall down
Like dying soldiers"

"Got my arms around baby brother
Put your hands away
You're gonna kill your mother"



** Play Chorus riff and ending again

** Play Main riff and melody riff again



Bridge - played 4x
e|------------------------|-----------------------|
b|------------------8~~~--|-----------------3~~~--|
g|-----------------10b12~-|-----------------5b7~--|
d|------------------------|-----------------------|
a|------------------------|-----------------------|
d|------------------------|-----------------------|



[Third Verse Harmony part] Starts at (4:16), play 7x
e|---------------------|--------------------|
b|---------------------|--------------------|
g|-------------2-5-4~--|------------4-7-5~--|
d|-------------0-0-0---|------------0-0-0---|
a|---------------------|--------------------|
d|---------------------|--------------------|



Play chorus again, lyrics are:

"Put your hands away" 4x
"Gonna kill your mother" 3x
"And I love her"


Outro octaves:
e|------------------|------------------|------------------|------------------|
b|-10TP-------------|-9TP--------------|------------------|------------------|
g|------------------|------------------|-9TP--------------|-11TP-------------|
d|-7TP--------------|-6TP--------------|------------------|------------------|
a|------------------|------------------|-7TP--------------|--9TP-------------|
d|------------------|------------------|------------------|------------------|



Ending - Much slower, free time
e|-----------|-----------|--------------|
b|-----------|-----------|----15--------|
g|-7---------|-----------|----14--------|
d|-----------|-----------|----12--------|
a|-5---------|-----------|--------------|
d|-0---------|-----------|--------------|
 
While one guitar holds the D chord, guitar 2 plays the Verse 3 Harmony part 2x
     

****************************
Key:
| /   slide up
| \   slide down
| h   hammer-on
| p   pull-off
| b   bend note
| ~   vibrato
| TP  tremolo picking - repeatedly pick the note as needed
| x   Mute note
****************************
Suggest correction
Give kudos to tab author, rate the tab!
1 2 3 4 5
comments
print report bad tab
guest
You may want to rate the tab now too:
select rating
Wanna post a correction for this tab? Suggest correction