Oops, an error
Loading. Please wait.

Head Down Tab

version 1
version 1

Whole song

Interactive

23,578 views 18 this week
4 commentsread comments
1 2 3 4 5
x 12
add to favorites
launch autoscroll
font size
0
reset
how to read this tab
guitar tuner
Autoscroll
slow
fast
+/-
esc
set tempo
stop
Help us to improve Ultimate-Guitar.com Take our survey!
×
Tuning (low to high) : CACGCE

       fig 1                   fig 2              fig 3        
e|--1/2\1p0-0----1/2\1p0-0--|------------------|-12xx12-12-12-|
B|----------0------------0--|---7-6b-0-5-5h7-0-|-12xx12-12-12-|
G|--1/2\1p0-0----1/2\1p0-0--|------------------|-12xx12-12-12-|
D|--------------------------|------------------|--------------|
A|--------------------------|------------------|--------------|
E|--------------------------|-0----------------|--------------|
      fig 4                                              fig 5
E|---------------------------|----------------------|             
C|---------------------------|----------------------|             
G|--5-7-8-7h8-8-7-1-1h3p1-0--|----------------------|             
C|---------------------------|----------------------|
A|---------------------------|--3-3-3-3-3-3-3-3-3---| 
C|---------------------------|--5-5-5-5-5-5-5-5-5---|
                                 ^^^^ ^^ ^v^
(repeat figs 2,3 & 4 three times then play fig 5 to lead into
vocals)
(fig 5 can also be played as an F in standard tuning)

(fig 6)
     I see that smile
e|---------------------------------------------------------|
B|---------------------------------------------------------|
G|--------------------------------------------0-00-0-0000--|
D|-333-3-3333----222-2-2222----555-5-5555-7-8\0-00-0-0000--|
A|-xxx-x-xxxx----xxx-x-xxxx----xxx-x-xxxx-x-x-3-33-3-3333--|
E|-333-3-3333----222-2-2222----555-5-5555-7-8\0-00-0-0000--|
  ^^^ ^ ^v^^

(play fig 6 twice then return to fig 2 and 3 and play twice
return to fig 6  for "I see you laugh" play six times)

(fig 7)
    Bow down
e|------------------------------------------|                   
B|------------------------------------------|                   
G|-8~-------7~-------5~-------3-2-3p2p0-----|                   
D|------------------------------------------|                   
A|------------------------------------------|                   
E|------------------------------------------|

(play fig 7 twice over fig 6)

(fig 8)
      Head  high
e|------------------------------------------|
B|------------------------------------------|
G|-13~------12~------10~-----8-7-5----------|
D|------------------------------------------|
A|------------------------------------------|
E|------------------------------------------|

(play fig 8 twice over fig 6 then return to fig 1 and play
twice)

(fig 9)
e|----------------------|
B|----------------------|
G|----------------------|
D|--023--578--000-000---|
A|--3xx--xxx--333-333---|
E|--023--578--000-000---|

(repeat fig 9 four times)
(fig 10)
e|-------------------------|
B|-------------------------|
G|-9-12-9--7~---7-10-7-5~--|
D|-------------------------|
A|-------------------------|
E|-------------------------|

(return to figures 2 to 4  play twice then fig 5 followed by
fig 6 four times with figs 7 and 8 overdubbing)

      fig 11                 fig 12
e|---------5-5-------0-0-|------------------|
B|-----------------------|------------------|
G|--0-2-3/5-5-5-3p2-0-0--|--3-2-0-2-3bp2p0--|
D|-----------------------|------------------|
A|-----------------------|------------------|
E|-----------------------|------------------|


************************************

| x  Dead note
| p  Pull-off
| /  Slide up
| \  Slide down
| h  Hammer-on
| b  Bend
| ~  Vibrato

************************************
Suggest correction
comments
print report bad tab
4 comments total. Showing first comments.
0 reply
jimbopo 692 Oct 13, 2008 10:12 AM

Nice tab of the song but your spacing REALLY BLOWS!! Please fix this before another five years go by. ***** for now... but if someone out does your tab, its ****.

0 reply
Dustdreams 10 Mar 04, 2009 10:33 PM

Thanks for putting out this tab. For some reason Figure 2 doesn't sound quite right to me, but I can't seem to figure out any other way to play it. However, I did find a mistake with Figure 10, here is the correction.

FIGURE 10

E----------------------------------------------------------------- |
C----------------------------------------------------------------- |
G---9h12-9-7---9h12-9-5---9h12-9-7---9h12-9-7---7h9-9-7---7h9-9-5- |
C----------------------------------------------------------------- |
A----------------------------------------------------------------- |
E------------------------------------------------------------------|

+3 reply
ckb614 10 Jul 04, 2013 07:17 PM

Tuning is actually CGCGGe, which obviously changes the second string for this whole tab

guest
You may want to rate the tab now too:
select rating
Wanna post a correction for this tab? Suggest correction