Oops, an error
Loading. Please wait.

Jesus Christ Pose tab

version 2
version 2

Whole song

25,341 views 54 this week
7 commentsread comments
1 2 3 4 5
x 15
add to favorites
×
Save as Personal and add changes to this tab that will be seen only by you. Learn more ›
×
You can save this tab as Personal to edit and correct it or add notes. All changes will be seen only by you. Learn more »
launch autoscroll
font size
0
reset
how to read this tab
guitar tuner
backing track
0:00
0:00
edit
Autoscroll
slow
fast
+/-
esc
set tempo
stop
Author
Unregistered
(Gtr 1) (D A D G B E) - 'Guitar 1'
(Gtr 2) (D A D G B E) - 'Guitar 2'

Moderately Q=134
   N.C.
  4/4
(Gtr 1)
    Q.    Q.    +E   E    +W
e|-22---------------23-|-(23)--------|
B|-------23----(23)----|-------------|
G|---------------------|-------------|
D|---------------------|-------------|
A|---------------------|-------------|
E|---------------------|-------------|

    +H       Q.     E     +Q.    +Q.    +E   E    +W
e|-(23)----(23)---(23)-|-(23)---(23)---(23)-17-|-(17)----|
B|----------19-----20--|-(20)---(20)---(20)-19-|-(19)----|
G|---------------------|-----------------------|---------|
D|---------------------|-----------------------|---------|
A|---------------------|-----------------------|---------|
E|---------------------|-----------------------|---------|

    W           +W            +W            +W
e|-28--------|-(28)--------|-(28)--------|-(28)----|
B|-----------|-------------|-------------|---------|
G|-----------|-------------|-------------|---------|
D|-----------|-------------|-------------|---------|
A|-----------|-------------|-------------|---------|
E|-----------|-------------|-------------|---------|

    W           +W            +W            +W
e|-----------|-------------|-------------|---------|
B|-16--------|-(16)--------|-(16)--------|-(16)----|
G|-----------|-------------|-------------|---------|
D|-----------|-------------|-------------|---------|
A|-----------|-------------|-------------|---------|
E|-----------|-------------|-------------|---------|

     W            +W            +W            +W
e|-(28)--------|-(28)--------|-(28)--------|-(28)----|
B|-(16)--------|-(16)--------|-(16)--------|-(16)----|
G|-------------|-------------|-------------|---------|
D|-------------|-------------|-------------|---------|
A|-------------|-------------|-------------|---------|
E|-------------|-------------|-------------|---------|

[Intro]
    N.C.
(Gtr 1)
          |--3--|                  |--3--|
    H     S  S  S E  Q       H     S  S  S E  Q      (8x)
e|-------------------------|-------------------------|
B|o------------------4b5---|------------------4b5---o|
G|--------3h=5p=3-0--------|-------3h=5p=3-0---------|
D|-------------------------|-------------------------|
A|o------------------------|------------------------o|
E|--0----------------------|-0-----------------------|

(Gtr 2)
         |--3--|                  |--3--|
   H     S  S  S E  Q       H     S  S  S E  Q      (8x)
e|-------------------------|-------------------------|
B|o-----------------16b17--|-----------------16b17--o|
G|-------15h17p15-0--------|------15h17p15-0---------|
D|-------------------------|-------------------------|
A|o------------------------|------------------------o|
E|--0----------------------|-0-----------------------|

N.C.
(Gtr 1)
  PM----------------------------------------------------------|
  E S S S S S S S S S S S S S S   E S S S S S S S S S S S S S S
e|--------------------------------|-------------------------------|
B|o-------------------------------|-------------------------------|
G|--------------------------------|-------------------------------|
D|--------------------------------|-------------------------------|
A|o-------------------------------|-------------------------------|
E|--0-0-0-8-8-0-0-0-8-8-8-7-8-8-8-|-0-0-0-8-8-0-0-0-8-8-8-7-8-8-8-|

  N.C.
  PM----------------------------------------------------------|
  E S S S S S S S S S S S S S S   E S S S S S S S S S S S S S S
e|-------------------------------|--------------------------------|
B|-------------------------------|-------------------------------o|
G|-------------------------------|--------------------------------|
D|-------------------------------|--------------------------------|
A|-------------------------------|-------------------------------o|
E|-0-0-0-6-6-0-0-0-6-6-6-5-6-6-6-|-0-0-0-6-6-0-0-0-6-6-6-5-6-6-6--|

    N.C.
(Gtr 1)
 PM------------------------------------------------------------------|
  E S S S S S S S S S S S S S S    E  S S S S S S  S  S S S S S   S   S
e|--------------------------------|---------------------------------------|
B|o-------------------------------|---------------------------------------|
G|--------------------------------|---------------------------------------|
D|--------------------------------|---------------------------------------|
A|o-------------------------------|---------------------------------------|
E|--0-0-0-8-8-0-0-0-8-8-8-7-8-8-8-|--0--0-0-8-8-0-0--0--8-8-8-7-8---8---8-|

(Gtr 2)
    ~~~~~~~~~~~~~~~~~~~~~~~~~~~~~~~~~~~~~~~~~~~~~~~~~~~~
    W                               +H               Q.            +E
e|--------------------------------|---------------------------------------|
B|o-------------------------------|---------------------------------------|
G|--------------------------------|---------------------------------------|
D|--------------------------------|---------------------------------------|
A|o-------------------------------|---------------------------------------|
E|--8-----------------------------|-(8)-------------10------------(10)\---|

  N.C.
  PM------------------------------------------------------------|
  E S S S S S S S S S S S S S S    E  S S S S S S S S S S S S S S
e|-------------------------------|----------------------------------|
B|-------------------------------|---------------------------------o|
G|-------------------------------|----------------------------------|
D|-------------------------------|----------------------------------|
A|-------------------------------|---------------------------------o|
E|-0-0-0-6-6-0-0-0-6-6-6-5-6-6-6-|--0--0-0-6-6-0-0-0-6-6-6-5-6-6-6--|

  ~~~~~~~~~~~~~~~~~~~~~~~~~~~~~~~~~~~~
   W                               +W
e|-------------------------------|----------------------------------|
B|-------------------------------|---------------------------------o|
G|-------------------------------|----------------------------------|
D|-------------------------------|----------------------------------|
A|-------------------------------|---------------------------------o|
E|-6-----------------------------|-(6)------------------------------|

[Verse]
    N.C.
    PM----------------------------------------------------------|
    E S S S S S S S S S S S S S S   E S S S S S S S S S S S S S S
e|--------------------------------|-------------------------------|
B|o-------------------------------|-------------------------------|
G|--------------------------------|-------------------------------|
D|--------------------------------|-------------------------------|
A|o-------------------------------|-------------------------------|
E|--0-0-0-8-8-0-0-0-8-8-8-7-8-8-8-|-0-0-0-8-8-0-0-0-8-8-8-7-8-8-8-|

  PM----------------------------------------------------------|
  E S S S S S S S S S S S S S S   E S S S S S S S S S S S S S S  (4x)
e|-------------------------------|--------------------------------|
B|-------------------------------|-------------------------------o|
G|-------------------------------|--------------------------------|
D|-------------------------------|--------------------------------|
A|-------------------------------|-------------------------------o|
E|-0-0-0-6-6-0-0-0-6-6-6-5-6-6-6-|-0-0-0-6-6-0-0-0-6-6-6-5-6-6-6--|

[Pre-Chorus]
   N.C.
   E E  E     E      +Q     E     E
e|--------------------------------------|
B|-----11----11-----(11)---11----11-----|
G|-----13b15-13b15==(13)r--13b15-13b15==|
D|--------------------------------------|
A|--------------------------------------|
E|-0-0----------------------------------|

    +Q     E     E      +Q     E     E
e|-----------------------------------------|
B|-(11)---11----11-----(11)---11----11-----|
G|-(13)r--13b15-13b15==(13)r--13b15-13b15==|
D|-----------------------------------------|
A|-----------------------------------------|
E|-----------------------------------------|

   N.C.
    +Q     E     E      +Q     E     E
e|-----------------------------------------|
B|-(11)---13----13-----(13)---13----13-----|
G|-(13)r--15b17-15b17==(15)r--15b17-15b17==|
D|-----------------------------------------|
A|-----------------------------------------|
E|-----------------------------------------|

    +Q     E     E      +Q     E     E
e|-----------------------------------------|
B|-(13)---13----13-----(13)---13----13-----|
G|-(15)r--15b17-15b17==(15)r--15b17-15b17==|
D|-----------------------------------------|
A|-----------------------------------------|
E|-----------------------------------------|

   N.C.
    +Q     E     E      +Q     E     E
e|-----------------------------------------|
B|-(13)---15----15-----(15)---15----15-----|
G|-(15)r--17b19-17b19==(17)r--17b19-17b19==|
D|-----------------------------------------|
A|-----------------------------------------|
E|-----------------------------------------|

    +Q     E     E      +Q     E     E
e|-----------------------------------------|
B|-(15)---15----15-----(15)---15----15-----|
G|-(17)r--17b19-17b19==(17)r--17b19-17b19==|
D|-----------------------------------------|
A|-----------------------------------------|
E|-----------------------------------------|

   N.C.
    +Q     E     E      +Q     E     E
e|-----------------------------------------|
B|-(15)----9-----9------(9)----9-----9-----|
G|-(17)r--11b13-11b13==(11)r--11b13-11b13==|
D|-----------------------------------------|
A|-----------------------------------------|
E|-----------------------------------------|

    +Q     E     E      +Q     E     E
e|----------------------------------------|
B|--(9)----9-----9------(9)----9-----9----|
G|-(11)r--11b13-11b13==(11)r--11b13-11b13-|
D|----------------------------------------|
A|----------------------------------------|
E|----------------------------------------|

[Pre-Verse]
N.C.
PM----------------------------------------------------------|
  E S S S S S S S S S S S S S S   E S S S S S S S S S S S S S S
e|--------------------------------|-------------------------------|
B|o-------------------------------|-------------------------------|
G|--------------------------------|-------------------------------|
D|--------------------------------|-------------------------------|
A|o-------------------------------|-------------------------------|
E|--0-0-0-8-8-0-0-0-8-8-8-7-8-8-8-|-0-0-0-8-8-0-0-0-8-8-8-7-8-8-8-|

  N.C.
  PM----------------------------------------------------------|
  E S S S S S S S S S S S S S S   E S S S S S S S S S S S S S S
e|-------------------------------|--------------------------------|
B|-------------------------------|-------------------------------o|
G|-------------------------------|--------------------------------|
D|-------------------------------|--------------------------------|
A|-------------------------------|-------------------------------o|
E|-0-0-0-6-6-0-0-0-6-6-6-5-6-6-6-|-0-0-0-6-6-0-0-0-6-6-6-5-6-6-6--|

N.C.
(Gtr 1)
  PM------------------------------------------------------------------|
  E S S S S S S S S S S S S S S    E  S S S S S S  S  S S S S S   S   S
e|--------------------------------|---------------------------------------|
B|o-------------------------------|---------------------------------------|
G|--------------------------------|---------------------------------------|
D|--------------------------------|---------------------------------------|
A|o-------------------------------|---------------------------------------|
E|--0-0-0-8-8-0-0-0-8-8-8-7-8-8-8-|--0--0-0-8-8-0-0--0--8-8-8-7-8---8---8-|

(Gtr 2)
 ~~~~~~~~~~~~~~~~~~~~~~~~~~~~~~~~~~~~~~~~~~~~~~~~~~~~
  W                               +H               Q.            +E
e|--------------------------------|---------------------------------------|
B|o-------------------------------|---------------------------------------|
G|--------------------------------|---------------------------------------|
D|--------------------------------|---------------------------------------|
A|o-------------------------------|---------------------------------------|
E|--8-----------------------------|-(8)-------------10------------(10)\---|

  N.C.
  PM------------------------------------------------------------|
  E S S S S S S S S S S S S S S    E  S S S S S S S S S S S S S S
e|-------------------------------|----------------------------------|
B|-------------------------------|---------------------------------o|
G|-------------------------------|----------------------------------|
D|-------------------------------|----------------------------------|
A|-------------------------------|---------------------------------o|
E|-0-0-0-6-6-0-0-0-6-6-6-5-6-6-6-|--0--0-0-6-6-0-0-0-6-6-6-5-6-6-6--|

 | ~~~~~~~~~~~~~~~~~~~~~~~~~~~~~~~~~~~~
 | W                               +W
e|-------------------------------|----------------------------------|
B|-------------------------------|---------------------------------o|
G|-------------------------------|----------------------------------|
D|-------------------------------|----------------------------------|
A|-------------------------------|---------------------------------o|
E|-6-----------------------------|-(6)------------------------------|

[Verse]
N.C.
(Gtr 1)
 PM----------------------------------------------
  E     S  S  S  S  S  S  S  S  S  S  S  S  S  S
e|--------------------------------------------------|
B|o-------------------------------------------------|
G|--------------------------------------------------|
D|--------------------------------------------------|
A|o-------------------------------------------------|
E|---0-----0--0--8--8--0--0--0--8--8--8--7--8--8--8-|

(Gtr 2)
     S  S  S  S  S  S  S  S  S  S  S  S  S  S  S  S
e|--------------------------------------------------|
B|o-------------------------------------------------|
G|--------------------------------------------------|
D|--12-12-12-12-12-12-12-12-12-12-12-12-12-12-12-12-|
A|o-------------------------------------------------|
E|--------------------------------------------------|

 -------------------------------|
  E   S S S S S S S S S S S S S S
e|---------------------------------|
B|---------------------------------|
G|---------------------------------|
D|---------------------------------|
A|---------------------------------|
E|-0---0-0-8-8-0-0-0-8-8-8-7-8-8-8-|

   S S S S S S S S S S S S S S S S
e|---------------------------------|
B|---------------------------------|
G|---------------------------------|
D|-7-7-7-7-7-7-7-7-7-7-7-7-7-7-7-7-|
A|---------------------------------|
E|---------------------------------|

  N.C.
  PM--------------------------------------------------------------|
   E   S S S S S S S S S S S S S S   E   S S S S S S S S S S S S S S   (4x)
e|---------------------------------|-----------------------------------|
B|---------------------------------|----------------------------------o|
G|---------------------------------|-----------------------------------|
D|---------------------------------|-----------------------------------|
A|---------------------------------|----------------------------------o|
E|-0---0-0-6-6-0-0-0-6-6-6-5-6-6-6-|-0---0-0-6-6-0-0-0-6-6-6-5-6-6-6---|

   S S S S S S S S S S S S S S S S   S S S S S S S S S S S S S S S S   (4x)
e|---------------------------------|-----------------------------------|
B|---------------------------------|----------------------------------o|
G|---------------------------------|-----------------------------------|
D|---------------------------------|-7-7-7-7-7-7-7-7-7-7-7-7-7-7-7-7---|
A|-5-5-5-5-5-5-5-5-5-5-5-5-5-5-5-5-|----------------------------------o|
E|---------------------------------|-----------------------------------|

[Pre-Chorus]
N.C.
(Gtr 1)
   E E  E     E      +Q     E     E
e|--------------------------------------|
B|-----11----11-----(11)---11----11-----|
G|-----13b15-13b15==(13)r--13b15-13b15==|
D|--------------------------------------|
A|--------------------------------------|
E|-0-0----------------------------------|

    +Q     E     E      +Q     E     E
e|-----------------------------------------|
B|-(11)---11----11-----(11)---11----11-----|
G|-(13)r--13b15-13b15==(13)r--13b15-13b15==|
D|-----------------------------------------|
A|-----------------------------------------|
E|-----------------------------------------|

   N.C.
    +Q     E     E      +Q     E     E
e|-----------------------------------------|
B|-(11)---13----13-----(13)---13----13-----|
G|-(13)r--15b17-15b17==(15)r--15b17-15b17==|
D|-----------------------------------------|
A|-----------------------------------------|
E|-----------------------------------------|

    +Q     E     E      +Q     E     E
e|-----------------------------------------|
B|-(13)---13----13-----(13)---13----13-----|
G|-(15)r--15b17-15b17==(15)r--15b17-15b17==|
D|-----------------------------------------|
A|-----------------------------------------|
E|-----------------------------------------|

   N.C.
    +Q     E     E      +Q     E     E
e|-----------------------------------------|
B|-(13)---15----15-----(15)---15----15-----|
G|-(15)r--17b19-17b19==(17)r--17b19-17b19==|
D|-----------------------------------------|
A|-----------------------------------------|
E|-----------------------------------------|

    +Q     E     E      +Q     E     E
e|-----------------------------------------|
B|-(15)---15----15-----(15)---15----15-----|
G|-(17)r--17b19-17b19==(17)r--17b19-17b19==|
D|-----------------------------------------|
A|-----------------------------------------|
E|-----------------------------------------|

   N.C.
    +Q     E     E      +Q     E     E
e|-----------------------------------------|
B|-(15)----9-----9------(9)----9-----9-----|
G|-(17)r--11b13-11b13==(11)r--11b13-11b13==|
D|-----------------------------------------|
A|-----------------------------------------|
E|-----------------------------------------|

    +Q     E     E      +Q     E     E
e|-----------------------------------------|
B|--(9)----9-----9------(9)----9-----9-----|
G|-(11)r--11b13-11b13==(11)r--11b13-11b13==|
D|-----------------------------------------|
A|-----------------------------------------|
E|-----------------------------------------|

   N.C.
    +Q     E     E      +Q     E     E
e|-----------------------------------------|
B|--(9)---11----11-----(11)---11----11-----|
G|-(11)r--13b15-13b15==(13)r--13b15-13b15==|
D|-----------------------------------------|
A|-----------------------------------------|
E|-----------------------------------------|

    +Q     E     E      +Q     E     E
e|-----------------------------------------|
B|-(11)---11----11-----(11)---11----11-----|
G|-(13)r--13b15-13b15==(13)r--13b15-13b15==|
D|-----------------------------------------|
A|-----------------------------------------|
E|-----------------------------------------|

   N.C.
    +Q     E     E      +Q     E     E
e|-----------------------------------------|
B|-(11)---13----13-----(13)---13----13-----|
G|-(13)r--15b17-15b17==(15)r--15b17-15b17==|
D|-----------------------------------------|
A|-----------------------------------------|
E|-----------------------------------------|

    +Q     E     E      +Q     E     E
e|-----------------------------------------|
B|-(13)---13----13-----(13)---13----13-----|
G|-(15)r--15b17-15b17==(15)r--15b17-15b17==|
D|-----------------------------------------|
A|-----------------------------------------|
E|-----------------------------------------|

   N.C.
    +Q     E     E      +Q     E     E
e|-----------------------------------------|
B|-(13)---15----15-----(15)---15----15-----|
G|-(15)r--17b19-17b19==(17)r--17b19-17b19==|
D|-----------------------------------------|
A|-----------------------------------------|
E|-----------------------------------------|

    +Q     E     E      +Q     E     E
e|-----------------------------------------|
B|-(15)---15----15-----(15)---15----15-----|
G|-(17)r--17b19-17b19==(17)r--17b19-17b19==|
D|-----------------------------------------|
A|-----------------------------------------|
E|-----------------------------------------|

   N.C.
    +Q     E     E      +Q     E     E
e|-----------------------------------------|
B|-(15)----9-----9------(9)----9-----9-----|
G|-(17)r--11b13-11b13==(11)r--11b13-11b13==|
D|-----------------------------------------|
A|-----------------------------------------|
E|-----------------------------------------|

    +Q     E     E      +Q     E     E
e|----------------------------------------|
B|--(9)----9-----9------(9)----9-----9----|
G|-(11)r--11b13-11b13==(11)r--11b13-11b13-|
D|----------------------------------------|
A|----------------------------------------|
E|----------------------------------------|

[Chorus]
     N.C.    D5    N.C.    D5      N.C.    C5    N.C.    C5
    S S S S  E  E S S S S  E  E   S S S S  E  E S S S S  E  E  (4x)
e|------------------------------|------------------------------|
B|o-----------------------------|-----------------------------o|
G|------------------------------|------------------------------|
D|----------12-12---------12-12-|---------10-10---------10-10--|
A|o-x-x-x-x-12-12-x-x-x-x-12-12-|-x-x-x-x-10-10-x-x-x-x-10-10-o|
E|--x-x-x-x-12-12-x-x-x-x-12-12-|-x-x-x-x-10-10-x-x-x-x-10-10--|

[Bridge]
N.C.
   PM-------------------------------------
  E S S  S  S S S  S  S S  S  +S   S  E
e|----------------------------------------|
B|o---------------------------------------|
G|----------------------------------------|
D|----------------------------------------|
A|o---------------------------------------|
E|--0-0-0-12-12-0-0-10-10-0-10-(10)-10-12-|

 ------------------------------------|
  E S S  S  S S S  S  S S  S  +S   S  E
e|----------------------------------------|
B|----------------------------------------|
G|----------------------------------------|
D|----------------------------------------|
A|----------------------------------------|
E|-0-0-0-13-13-0-0-10-10-0-10-(10)-13-12--|

   A5             Ab5F5 Ab5   G5    Ab5
   W          +S  E. E. S +E  E +S  E.  5x
e|----------|---------------------------|
B|----------|--------------------------o|
G|----------|---------------------------|
D|-7--------|-(7)-6--3--6-(6)-5-(5)-6---|
A|-7--------|-(7)-6--3--6-(6)-5-(5)-6--o|
E|-7--------|-(7)-6--3--6-(6)-5-(5)-6---|

   N.C.
   E S S S S S S S S S S +S  S E   E S S S S S S S S S S +S  S E
e|-------------------------------|-------------------------------|
B|-------------------------------|-------------------------------|
G|-------------------------------|-------------------------------|
D|-------------------------------|-------------------------------|
A|-0-0-0-5-5-5-0-0-0-0-3-(3)-5-5-|-0-0-0-6-6-6-6-0-0-0-3-(3)-6-5-|
E|-------------------------------|-------------------------------|

   F5           Ab5F5 Ab5   G5    Ab5
   W          S E. E. S +E  E +S  E.
e|----------|------------------------|
B|----------|------------------------|
G|----------|------------------------|
D|-3--------|-x-6--3--6-(6)-5-(5)-6--|
A|-3--------|-x-6--3--6-(6)-5-(5)-6--|
E|-3--------|-x-6--3--6-(6)-5-(5)-6--|

[Chorus]
     N.C.    D5    N.C.    D5      N.C.    C5    N.C.    C5
     S S S S  E  E S S S S  E  E   S S S S  E  E S S S S  E  E  (4x)
e|------------------------------|------------------------------|
B|o-----------------------------|-----------------------------o|
G|------------------------------|------------------------------|
D|----------12-12---------12-12-|---------10-10---------10-10--|
A|o-x-x-x-x-12-12-x-x-x-x-12-12-|-x-x-x-x-10-10-x-x-x-x-10-10-o|
E|--x-x-x-x-12-12-x-x-x-x-12-12-|-x-x-x-x-10-10-x-x-x-x-10-10--|

[Outro]
    N.C.
(Gtr 1)
          |--3--|                  |--3--|
    H     S  S  S E  Q       H     S  S  S E  Q      (6x)
e|-------------------------|-------------------------|
B|o------------------4b5---|------------------4b5---o|
G|--------3h=5p=3-0--------|-------3h=5p=3-0---------|
D|-------------------------|-------------------------|
A|o------------------------|------------------------o|
E|--0----------------------|-0-----------------------|

(Gtr 2)
         |--3--|                  |--3--|
  H     S  S  S E  Q       H     S  S  S E  Q      (6x)
e|-------------------------|-------------------------|
B|o-----------------16b17--|-----------------16b17--o|
G|-------15h17p15-0--------|------15h17p15-0---------|
D|-------------------------|-------------------------|
A|o------------------------|------------------------o|
E|--0----------------------|-0-----------------------|

  N.C.
        |--3--|                  |--3--|
   H     S  S  S E  Q       H     S  S  S E  Q
e|------------------------|------------------------|
B|------------------4b5---|------------------4b5---|
G|-------3h=5p=3-0--------|-------3h=5p=3-0--------|
D|------------------------|------------------------|
A|------------------------|------------------------|
E|-0----------------------|-0----------------------|

        |--3--|                  |--3--|
   H     S  S  S E  Q       H     S  S  S E  Q
e|------------------------|------------------------|
B|-----------------16b17--|-----------------16b17--|
G|------15h17p15-0--------|------15h17p15-0--------|
D|------------------------|------------------------|
A|------------------------|------------------------|
E|-0----------------------|-0----------------------|

  N.C.
        |--3--|                  |--3--|
   H     S  S  S E  Q       H     S  S  S E  Q
e|------------------------|------------------------|
B|------------------4b5---|------------------4b5---|
G|-------3h=5p=3-0--------|-------3h=5p=3-0--------|
D|------------------------|------------------------|
A|------------------------|------------------------|
E|-0----------------------|-0----------------------|

       |--3--|                  |--3--|
  H     S  S  S E  Q       H     S  S  S E  Q
e|------------------------|------------------------|
B|-----------------16b17--|-----------------16b17--|
G|------15h17p15-0--------|------15h17p15-0--------|
D|------------------------|------------------------|
A|------------------------|------------------------|
E|-0----------------------|-0----------------------|

  N.C.
        |--3--|                  |--3--|
   H     S  S  S E  Q       H     S  S  S E  Q
e|------------------------|------------------------|
B|------------------4b5---|------------------4b5---|
G|-------3h=5p=3-0--------|-------3h=5p=3-0--------|
D|------------------------|------------------------|
A|------------------------|------------------------|
E|-0----------------------|-0----------------------|

       |--3--|                  |--3--|
   H     S  S  S E  Q       H     S  S  S E  Q
e|------------------------|------------------------|
B|-----------------16b17--|-----------------16b17--|
G|------15h17p15-0--------|------15h17p15-0--------|
D|------------------------|------------------------|
A|------------------------|------------------------|
E|-0----------------------|-0----------------------|

  N.C.
        |--3--|                  |--3--|
   H     S  S  S E  Q       H     S  S  S E  Q
e|------------------------|------------------------|
B|------------------4b5---|------------------4b5---|
G|-------3h=5p=3-0--------|-------3h=5p=3-0--------|
D|------------------------|------------------------|
A|------------------------|------------------------|
E|-0----------------------|-0----------------------|

      |--3--|                  |--3--|
   H     S  S  S E  Q       H     S  S  S E  Q
e|------------------------|------------------------|
B|-----------------16b17--|-----------------16b17--|
G|------15h17p15-0--------|------15h17p15-0--------|
D|------------------------|------------------------|
A|------------------------|------------------------|
E|-0----------------------|-0----------------------|

                                            Q=87
   N.C.
(Gtr 1)
    H.       Q     +H       H         +Q     E  E  E  E  Q    W
e|-15-------17--|-(17)----[23]----|-([23])------------------|------*|
B|--------------|-----------------|-------------------------|------*|
G|--------------|-----------------|---------14-13-13-16-17--|------*|
D|--------------|-----------------|----------0--0--0--0--0--|------*|
A|--------------|-----------------|-------------------------|------*|
E|--------------|-----------------|-------------------------|------*|



************************************

| (n)  Ghost note
| b    Bend
| h    Hammer-on
| p    Pull-off
| ~    Vibrato
| PM   Palm mute
| x    Dead note
| *    Natural harmonic
| [n]  Artificial harmonic (Pinch harmonic)

************************************

            
            
Suggest correction
Creating personal tab
Creating personal tab
You can edit any tab online and save it as your Personal.

You can edit, replace or remove any tab part or add personal notes – all changes will be seen only by you.

Personal tabs can be accessed anytime from any device, even offline.
Learn more »
comments
print report bad tab
7 comments total. Showing first comments.
+2 reply
hunger_strike 61 Aug 21, 2007 02:40 AM

great tab!! one question though: in the intro how can it go up to the 28th fret?? there is no 28th fret!!

0 reply
hunger_strike 61 Aug 21, 2007 02:57 AM

??

-1 reply
bigblockelectra 30 Nov 03, 2007 08:35 PM

Some guitars have either an extra octave or just more frets

guest
Wanna post a correction for this tab? Suggest correction