Oops, an error
Loading. Please wait.

Kyle Petty Son Of Richard Tab

472 views 1 this week
no commentswrite comment
1 2 3 4 5
please rate
add to favorites
launch autoscroll
font size
0
reset
how to read this tab
guitar tuner
Autoscroll
slow
fast
+/-
esc
set tempo
stop
Help us to improve Ultimate-Guitar.com Take our survey!
×
Author
Difficulty
Tuning
novice
D A D G B E
Kyle Petty, Son Of Richard

Drum Intro 7/8    Dropped D tuning             3*  5/4
-||--------------------------------------------||-------------------------------|
-||--------------------------------------------||-------------------------------|
-||*------------------------------------------*||-------------------------------|
-||*------------------------------------------*||---5--5--5--5--5---------------|
-||--------------------------------------------||---3--3--3--3--3---------------|
-||--------------------------------------------||-------------------------------|


     8/8                          4*       Heat is rising feel it...    8*
||--------------------------------||--||--------------------------------||------|
||--------------------------------||--||--------------------------------||------|
||*------------------------------*||--||*------------------------------*||------|
||*---0--0--3-----0--0--1--2--3--*||--||*---0--0--3-----0--0--1--2--3--*||------|
||----0--0--3-----0--0--1--2--3---||--||----0--0--3-----0--0--1--2--3---||------|
||----0--0--3-----0--0--1--2--3---||--||----0--0--3-----0--0--1--2--3---||------|


     So get it right...        3*  7/8
||----0-----0-----|--0-----0---||-----------------------------------------------|
||----2-----3-----|--2-----2---||-----------------------------------------------|
||*---2-----0-----|--2-----0--*||-----------------------------------------------|
||*---2-----4-----|--2-----0--*||---7--7----------------------------------------|
||----0-----0-----|--0-----0---||---5--5----------------------------------------|
||----------5-----|--------4---||---0--0-----5--7--3--5-------------------------|


                              4*      So get it right               4*
||----------------------------||--||-----------------------------||-------------|
||----------------------------||--||-----------------------------||-------------|
||*--------------------------*||--||*---------------------------*||-------------|
||*--------7--7--------------*||--||*--0--0----tr---5--7--3--5--*||-------------|
||---------5--5---------------||--||---0--0---3--5--5--7--3--5---||-------------|
||---0--0--0--0--5--7--3--5---||--||---0--0---------5--7--3--5---||-------------|


5/4                  8/8                         4*
----------------||--------------------------------||----------------------------|
----------------||--------------------------------||----------------------------|
----------------||*------------------------------*||----------------------------|
-5--5--5--5--5--||*---0--0--3-----0--0--1--2--3--*||----------------------------|
-3--3--3--3--3--||----0--0--3-----0--0--1--2--3---||----------------------------|
----------------||----0--0--3-----0--0--1--2--3---||----------------------------|


  Laugh, laugh, laugh, laugh....  8*       So get it right...        3*
||--------------------------------||--||----0-----0-----|--0-----0---||---------|
||--------------------------------||--||----2-----3-----|--2-----2---||---------|
||*------------------------------*||--||*---2-----0-----|--2-----0--*||---------|
||*---0--0--3-----0--0--1--2--3--*||--||*---2-----4-----|--2-----0--*||---------|
||----0--0--3-----0--0--1--2--3---||--||----0-----0-----|--0-----0---||---------|
||----0--0--3-----0--0--1--2--3---||--||----------5-----|--------4---||---------|


4/4         Drum Solo 7/8         3*  5/4
-------||--------------------------||-------------------------------------------|
-------||--------------------------||-------------------------------------------|
-------||*------------------------*||-------------------------------------------|
-7--7--||*------------------------*||---5--5--5--5--5---------------------------|
-5--5--||--------------------------||---3--3--3--3--3---------------------------|
-0--0--||--------------------------||-------------------------------------------|


     Guitar Solo - feedback etc. 12*    5/4
||--------------------------------||--------------------------------------------|
||--------------------------------||--------------------------------------------|
||*------------------------------*||--------------------------------------------|
||*------------------------------*||---5--5--5--5--5----------------------------|
||--------------------------------||---3--3--3--3--3----------------------------|
||--------------------------------||--------------------------------------------|


     8/8                         4*
||--------------------------------||--------------------------------------------|
||--------------------------------||--------------------------------------------|
||*------------------------------*||--------------------------------------------|
||*---0--0--3-----0--0--1--2--3--*||--------------------------------------------|
||----0--0--3-----0--0--1--2--3---||--------------------------------------------|
||----0--0--3-----0--0--1--2--3---||--------------------------------------------|


A hundred miles of chicken wire...8*    So get it right...           3*
||--------------------------------||--||----0-----0-----|--0-----0---||---------|
||--------------------------------||--||----2-----3-----|--2-----2---||---------|
||*------------------------------*||--||*---2-----0-----|--2-----0--*||---------|
||*---0--0--3-----0--0--1--2--3--*||--||*---2-----4-----|--2-----0--*||---------|
||----0--0--3-----0--0--1--2--3---||--||----0-----0-----|--0-----0---||---------|
||----0--0--3-----0--0--1--2--3---||--||----------5-----|--------4---||---------|


7/8                        I'm gonna get to you       4*
----------------------||-----------------------------||-------------------------|
----------------------||-----------------------------||-------------------------|
----------------------||*---------------------------*||-------------------------|
-7--7-----------------||*---------7--7--------------*||-------------------------|
-5--5-----------------||----------5--5---------------||-------------------------|
-0--0-----5--7--3--5--||----0--0--0--0--5--7--3--5---||-------------------------|


                               4* 5/4
||-----------------------------||------------------|----------------------------|
||-----------------------------||------------------|----------------------------|
||*---------------------------*||------------------|----------------------------|
||*--0--0----trl--5--7--3--5--*||---5--5--5--5--5--|----------------------------|
||---0--0---3--5--5--7--3--5---||---3--3--3--3--3--|----------------------------|
||---0--0---------5--7--3--5---||------------------|----------------------------|


Flick pick up toggle switch while sustaining feeback
--------------------------------------------------------------------------------|
--------------------------------------------------------------------------------|
--------------------------------------------------------------------------------|
-5------------------------------------------------------------------------------|
-3------------------------------------------------------------------------------|
--------------------------------------------------------------------------------|
Suggest correction
Give kudos to tab author, rate the tab!
1 2 3 4 5
comments
print report bad tab
guest
You may want to rate the tab now too:
select rating
Wanna post a correction for this tab? Suggest correction