Oops, an error
Loading. Please wait.

Like Suicide Bass Tab

version 1
version 1

Whole song

Interactive

1,975 views 1 this week
no commentswrite comment
1 2 3 4 5
please rate
add to favorites
launch autoscroll
font size
0
reset
guitar tuner
Autoscroll
slow
fast
+/-
esc
set tempo
stop
Help us to improve Ultimate-Guitar.com Take our survey!
×
Author
Soundgarden - "Like Suicide"
Bass Tuning: DADG - drop D
tabbed by jjhand

Intro - play 6x, start 
G|--------------------|--------------------------|
D|--------------------|--------------------------|
A|--------------------|--------------------------|
D|--0--00-0-0-0-0-0--/|/12--1212-12-12-12-12-12--|

Verse Riff 1- play 2x
G|-------------------|-------------------------|------------------|------------------|--------------|
D|-------------------|-------------------------|------------------|------------------|--------------|
A|-------------------|-------------------------|------------------|------------------|--------------|
D|-0--00-0-0-0-0-0--/|/12--1212-12-12-12-12-12-|-0--00-0-0-0-0-0--|-3--33-3-3-3-3-3--|-5--55-5-5-5-5|

G|-----------------|------------------|--------------------------------|
D|-----------------|------------------|--------------------------------|
A|-----------------|------------------|--------------------------------|
D|--3--5-5---------|-0--00-0-0-0-0-0-/|/12--12-12-12-12-12--12--12--12-|


Verse Riff 2
G|-------------------|-------------------------|-------------------|--------------------------|
D|-------------------|-------------------------|-------------------|--------------------------|
A|-------------------|-------------------------|-------------------|--------------------------|
D|-0--00-0-0-0-0-0--/|/12--1212-12-12-12-12-12-|-0--00-0-0-0-0-0--/|/12--1212-12-12-12-12-12--|

G|------------------|------------------|-------------------|-------------------------|
D|------------------|------------------|-------------------|-------------------------|
A|------------------|------------------|-------------------|-------------------------|
D|-3--33-3-3-3-3-3--|-5--55-5-5-5-5-5--|-0--00-0-0-0-0-0--/|/12--1212-12-12-12-12-12-|


Chorus - play 2x
G|-------------|-------------|-------------------|--------------------|
D|-3-----------|-2-----------|-3-----------------|--------------------|
A|-------------|-------------|---------2---------|--3--5-5------------|
D|-------------|-------------|-------------------|--------------------|

End Chorus Riff
G|-------------------|-------------------------------|
D|-------------------|-------------------------------|
A|-------------------|-------------------------------|
D|--0--00-0-0-0-0-0-/|/12--1212-12-12-12--12--12--12-|


Play Verse Riff 1 as before (2x)
Play Verse Riff 2 as before
Play Chorus Riff as before


 Chorus 2 Riff Ending
G|------------------|----------------------------|
D|------------------|----------------------------|
A|------------------|----------------------------|
D|--0--00-0-0-0-0-0/|/12--1212-12-----12--11--14-|


 Heavy Part #1 - play 2x
G|-------------------|------------------|------------------|------------------|
D|-------------------|------------------|------------------|------------------|
A|-------------------|/5--55-5-5-5-5-5--|------------------|------------------|
D|-0--00-0-0-0-0-0--/|------------------|-0--00-0-0-0-0-0--|-3--33-3-3-3-3-3--|

G|-----------------|-----------------|----------------|   First Ending-----|    Second Ending----|
D|-----------------|-----------------|----------------|   -----------------|    -----------------|
A|-----------------|-----------------|--3--5-5--------|   --------5--4--7--|    --3--5-5---------|
D|--3--5-5---------|--3--5-5---------|----------------|   -----------------|    -----------------|

 Heavy Part #2 - play 2x
G|-----------------|-----------------|------------------|-----------------|
D|-----------------|-----------------|------------------|-----------------|
A|-5--55-5-5-5-5-5-|-5--55-----------|------------------|/5--55-5-5-5-5-5-|
D|-----------------|-------5--5-5-5--|-0--00-0-0-0-0-0-/|-----------------|

During solo, play "Heavy Part #2" four times (16 bars total).
The 16th bar has a different rhythm:
G|------------------------------|
D|------------------------------|
A|-5-5-5-5-5-5-5-5-5-5-5-5-5----| <- the note is played 13x 
D|------------------------------|

Solo Break ()
G|-----------------|-----------------|----------------|-----------------|-----------------|
D|-----------------|-----------------|----------------|-----------------|-----------------|
A|-----------------|-----------------|--3--5-5--------|--3--5-5---------|--3--5-5---------|
D|--3--5-5---------|--3--5-5---------|----------------|-----------------|-----------------|

G|-----------------|-----------------|----------------|
D|-----------------|-----------------|----------------|
A|--3--5-5---------|--3--5-5---------|--3--5-5--------|
D|-----------------|-----------------|----------------|

Vocal Chorus Ending
G|-------------|-------------|-------------------|--------------------|
D|-3-----------|-2-----------|-3-----------------|--------------------|
A|-------------|-------------|---------2---------|--3--5-5------------|
D|-------------|-------------|-------------------|--------------------|

G|-------------|-------------|-------------------|--------------------|
D|-3-----------|-2-----------|-3-----------------|--------------------|
A|-------------|-------------|---------2---------|--3--5--------------|
D|-------------|-------------|-------------------|-------0------------|


key : slides are shown by /

Suggest correction
Give kudos to tab author, rate the tab!
1 2 3 4 5
comments
print report bad tab
guest
You may want to rate the tab now too:
select rating
Please do not post tabs as comments. Select "correction" instead!