Oops, an error
Loading. Please wait.

Limo Wreck Bass Tab

version 1
version 1

Whole song

Interactive

1,260 views 6 this week
no commentswrite comment
1 2 3 4 5
please rate
add to favorites
launch autoscroll
font size
0
reset
guitar tuner
Tab Pro tools
  • play this tab
  • loop segment
  • change instrument
  • show fretboard
  • metronome
×
Best way to learn
"Limo Wreck"
Autoscroll
slow
fast
+/-
esc
set tempo
stop
Contributor
Soundgarden - "Limo Wreck"
From "Superunknown" Album
Bass Tuning: CGDG (tune E down 2 full steps, A down 1 full step)
tabbed by jjhand

Intro 
G|--------------------|--------------------|--------------------|--------------------|
D|--------------------|--------------------|--------------------|--------------------|
G|-5-----5------------|-5-----5------------|-5-----5------------|-5-----5------------|
C|-----------0-----0--|-----------0-----0--|-----------0-----0--|-----------0-----0--|




Tough Pre-Verse Riff: (Note, Bass rhythm is 12 beats that wrap around in 15 beat bars)
G|---------------------------------------------------------------|
D|--8h10---8h10--8--------8------------------------8h10---8h10---|
G|-----------------12------------12---12----10-------------------|
C|---------------------------------------------------------------|

G|---------------------------------------------------------------|
D|--8------------8----------------------8h10---8h10---8----------|
G|----12-------------12------10--12---------------------12-------|
C|---------------------------------------------------------------|

G|---------------------------------------------------------------|
D|--8---------------------8h10---8h10---8-------------8----------|
G|--------12---10--11--12-----------------12---------------12p10-|
C|---------------------------------------------------------------|

G|-----------------------------------------------------------------|
D|---------------8h10---8h10----8--------8-------------------------|
G|--12--10--12--------------------12-------------12---12---10---12-|
C|-----------------------------------------------------------------|


Verse Riff 1, play 3x
G|-----------------------------------------|
D|-----------------------------------------|
G|--7--------------------7p4-------3-------|
C|---------8------7------------------------|

  ending (three bars with 6 beats)
G|---------------|----------------|-----------------|
D|---------------|----------------|-----------------|
G|--7------------|--------7p4-----|-----------------|
C|---------8-----|-7--------------|-8-7-----7-------|


Verse Riff 2, play 2x
G|-------------------------------------------------------------|
D|-------------------------------------------------------------|
G|-------------------------------------------------------------|
C|--10b12------4b5--------3b4-------/8-7----------7------------|


Play Verse Riff 1 bar 4x (no "ending" bar)


Chorus- play 3x
G|--------------------------------------------------------|
D|--------------------------------------------------------|
G|-------------4------4---2-------------------------------|
C|--6------6-----------------------6-3-----3---2------2---|

  ending (three bars with 6 beats)
G|----------------------|-------------------|-----------------|
D|----------------------|-------------------|-----------------|
G|------------4------4--|-2-----------------|-----------------|
C|-6------6-------------|----------6-3----3-|-2------/8-------|


Play Verse Riff 2 (4x)

Play Verse Riff 1 (6x, without the ending bar)

Play Chorus

Chorus 2 ending:
G|----------------------|-------------------|----------------|
D|----------------------|-------------------|----------------|
G|------------4------4--|-2-----------------|----------------|
C|-6------6-------------|----------6-3----3-|-2------1-------|


Play Intro 2x


Guitar solo riff - play 4x
G|--------------------------------------|
D|--------------------------------------|
G|-1------------------------------------|
C|-----------3---------2---------1p0----|

Riff 3 (As Vocals Return)
G|-----------------------------------------|
D|-----------------------------------------| 15 beats
G|--7--------------------7p4-----4-3-------|
C|---------8---8--7------------------------|

G|---------------|-----------------|-------------------------|
D|---------------|-----------------|-------------------------|
G|--7------------|--------7p4----4-|-3-3-3-3-3-3-3-3-3-3-3-3-|
C|---------8---8-|-7---------------|-------------------------|


Play Chorus 5x with "Chorus 2 Ending" to end the song.


comments
We did not receive enough feedback on this tab! Please rate:
print report bad tab
1 2 3 4 5
I want to post or [tab]
guest
You may want to rate the tab now too:
select rating
Please do not post tabs as comments. Select "correction" instead!