Oops, an error
Loading. Please wait.

Little Joe Tab

891 views 3 this week
no commentswrite comment
1 2 3 4 5
please rate
add to favorites
launch autoscroll
font size
0
reset
how to read this tab
guitar tuner
Tab Pro tools
  • play this tab
  • loop segment
  • change instrument
  • show fretboard
  • metronome
×
Best way to learn
"Little Joe"
Autoscroll
slow
fast
+/-
esc
set tempo
stop
Contributor
-------------------------------------------------------------------------------
                             LITTLE JOE - Soundgarden
-------------------------------------------------------------------------------
Tabbed by: DavidsonTFP
Email: DavidsonTFP@hotmail.com

Tuning: Standard Tuning (EADGBE)

INTRO
e|---------0-----------------------------------------------------------------|
B|-----3-----3---3-----------------------------------------------------------|
G|---2---2-----2-------------------------------------------------------------|
D|-0-------------------------------------------------------------------------|
A|---------------------------------------------------------------------------|
E|---------------------------------------------------------------------------|
Repeat 3x

e|-3p0-0-0h2p0---------------------------------------------------------------|
B|-------------3-------------------------------------------------------------|
G|---------------------------------------------------------------------------|
D|---------------------------------------------------------------------------|
A|---------------------------------------------------------------------------|
E|---------------------------------------------------------------------------|

e|---------0-----------------------------------------------------------------|
B|-----3-----3---3-----------------------------------------------------------|
G|---2---2-----2-------------------------------------------------------------|
D|-0-------------------------------------------------------------------------|
A|---------------------------------------------------------------------------|
E|---------------------------------------------------------------------------|
Repeat 3x

e|-0h3p0---0h3p0-2-----------------------------------------------------------|
B|-------5-------------------------------------------------------------------|
G|---------------------------------------------------------------------------|
D|---------------------------------------------------------------------------|
A|---------------------------------------------------------------------------|
E|---------------------------------------------------------------------------|

VERSE
e|---------------------------------------------------------------------------|
B|-3-3h5p3--2-2h3p2----------------------------------------------------------|
G|---------------------------------------------------------------------------|
D|---------------------------------------------------------------------------|
A|---------------------------------------------------------------------------|
E|---------------------------------------------------------------------------|
Repeat 4x

e|-3-3h5p3--2-2h3p2----------------------------------------------------------|
B|---------------------------------------------------------------------------|
G|---------------------------------------------------------------------------|
D|---------------------------------------------------------------------------|
A|---------------------------------------------------------------------------|
E|---------------------------------------------------------------------------|
Repeat 4x

CHORUS
e|-0~------------------------------------------------------------------------|
B|-0~------------------------------------------------------------------------|
G|-0~------------------------------------------------------------------------|
D|-0~------------------------------------------------------------------------|
A|-0~------------------------------------------------------------------------|
E|-0~------------------------------------------------------------------------|
Repeat 4x in a pattern of bending bar backwards, inwards, backwards, inwards

VERSE
e|---------------------------------------------------------------------------|
B|-3-3h5p3--2-2h3p2----------------------------------------------------------|
G|---------------------------------------------------------------------------|
D|---------------------------------------------------------------------------|
A|---------------------------------------------------------------------------|
E|---------------------------------------------------------------------------|
Repeat 4x

e|-3-3h5p3--2-2h3p2----------------------------------------------------------|
B|---------------------------------------------------------------------------|
G|---------------------------------------------------------------------------|
D|---------------------------------------------------------------------------|
A|---------------------------------------------------------------------------|
E|---------------------------------------------------------------------------|
Repeat 4x

CHORUS
e|-0~------------------------------------------------------------------------|
B|-0~------------------------------------------------------------------------|
G|-0~------------------------------------------------------------------------|
D|-0~------------------------------------------------------------------------|
A|-0~------------------------------------------------------------------------|
E|-0~------------------------------------------------------------------------|
Repeat 4x in reverse pattern from last time. This time bend the bar inwards, backwards, 
backwards

BREAKDOWN
e|-\0------------------------------------------------------------------------|
B|-\0------------------------------------------------------------------------|
G|-\0------------------------------------------------------------------------|
D|-\0------------------------------------------------------------------------|
A|-\0------------------------------------------------------------------------|
E|-\0------------------------------------------------------------------------|
Slide fingers down the strings

e|-12\0----------------------------------------------------------------------|
B|-12\0----------------------------------------------------------------------|
G|-12\0----------------------------------------------------------------------|
D|-12\0----------------------------------------------------------------------|
A|-12\0----------------------------------------------------------------------|
E|-12\0----------------------------------------------------------------------|
Pick scrape all of the way down

e|-0/------------------------------------------------------------------------|
B|-0/------------------------------------------------------------------------|
G|-0/------------------------------------------------------------------------|
D|-0/------------------------------------------------------------------------|
A|-0/------------------------------------------------------------------------|
E|-0/------------------------------------------------------------------------|
Slide fingers up the strings

e|---------------------------------------------------------------------------|
B|---------------------------------------------------------------------------|
G|---------------------------------------------------------------------------|
D|---------------------------------------------------------------------------|
A|---------------------------------------------------------------------------|
E|-(5)-(5)-------------------------------------------------------------------|
Repeat 6x

e|---------------------------------------------------------------------------|
B|---------------------------------------------------------------------------|
G|---------------------------------------------------------------------------|
D|-----(5)-------------------------------------------------------------------|
A|-------------(5)-----------------------------------------------------------|
E|-(5)-----(5)---------------------------------------------------------------|
Repeat 8x

e|---------------------------------------------------------------------------|
B|---------------------------------------------------------------------------|
G|---------------------------------------------------------------------------|
D|-3-3-3-3-3-1-1-1-1-1-1-3---------------------------------------------------|
A|-3-3-3-3-3-1-1-1-1-1-1-3---------------------------------------------------|
E|---------------------------------------------------------------------------|
Repeat 15x


| /  slide up
| \  slide down
| h  hammer-on
| p  pull-off
| ~  vibrato
| +  harmonic
| x  Mute note
===============================================================================
comments
We did not receive enough feedback on this tab! Please rate:
print report bad tab
1 2 3 4 5
I want to post or [tab]
guest
You may want to rate the tab now too:
select rating
Please do not post tabs as comments. Select "correction" instead!