Oops, an error
Loading. Please wait.

Loud Love Tab

version 1
version 1

Whole song

Interactive

9,759 views 30 this week
3 commentsread comments
1 2 3 4 5
x 6
add to favorites
launch autoscroll
font size
0
reset
how to read this tab
guitar tuner
Autoscroll
slow
fast
+/-
esc
set tempo
stop
Help us to improve Ultimate-Guitar.com Take our survey!
×
#----------------------------------PLEASE NOTE--------------------------------#
#This file is the author's own work and represents their interpretation of the#
#song. You may only use this file for private study, scholarship, or research.#
#-----------------------------------------------------------------------------#

From: "Kyle Smith" 
Subject: s/soundgarden/loud_love.tab
Date: Sun, 31 May 1998 16:51:28 PDT

Band:Soundgarden
Song:Loud Love
Album:Louder Than Love
Transcribed By:Smith
Email:ktulu54@hotmail.com

\ =Slide Down
/ =Slide Up
^ =Bend

Intro:
e---------------------------------------------------------|
B---15--/17--/18--\17--\13--/17--/18--\17--\13--/17--/18--|
G---------------------------------------------------------|
D---------------------------------------------------------|
A---------------------------------------------------------|
E---------------------------------------------------------|

e---------------------------------------------------------|
B--\17--\13--/17--/18--\17--\13--/17--/18--\17--\15--(15)-|
G---------------------------------------------------------|
D---------------------------------------------------------|
A---------------------------------------------------------|
E---------------------------------------------------------|

Main Riff:
e-------------------------------------|
B-------------------------------------|
G-------------------------------------|
D------7--------------------------5^--|
A----5-----5--7---4--7---5--7---7-----|
E--O-----O------O------O------O-------|

Post Chorus:
e-------------------------------------|
B-------------------------------------|
G-------------5-------------------7^--|
D--7----5--7--5--7---5---7--5--7--7^--|
A--7----5--7--3--7---5---7--5--7--5^--|
E--5----3--5-----5---3---5--3--5------|

Lyrics:By Chris Cornell

Verse 1: There's No Time To Keep It Low
			I've been Deaf now I Want Noise
			You Stay Down
			But I Wont be Quiet
			I'll Hammer On Until You Fight
Chorus:  Loud Love
Loud Love
Loud Love
Loud Love

Verse 2: If You've Got Some Time To Kill
         Slow Resistance Wins The War
         Well I Know
         But That's No Way to Go
You Can't Resist The Louder Pull

Post:    You Can't Resist The Louder Pull

Verse 3: Well That's Right
I Want Something To Explode
         I've Been Deaf
         Now I want Noise

#----------------------------------PLEASE NOTE--------------------------------#
#This file is the author's own work and represents their interpretation of the#
#song. You may only use this file for private study, scholarship, or research.#
#-----------------------------------------------------------------------------#

Date: Fri, 22 May 1998 21:13:24 PDT
From: Kyle Smith 
Subject: s/soundgarden/loud_love.tab

Band: Soundgarden
Song: Loud Love
Album: Louder than Love
Transcribed by: Smith
Email: ktulu54@interlog.com

Intro: Feedback
e--------------------------|
B-15-17-18-17-13-17-18-17--|
G--------------------------|
D--------------------------|
A--------------------------|
E--------------------------|

e--------------------------|
B-13-17-18-17-13-17-18-17--|
G--------------------------|
D--------------------------|
A--------------------------|
E--------------------------|

e--------------------------|
B-15~~~~~~~~~~~~~----------|
G--------------------------|
D--------------------------|
A--------------------------|
E--------------------------|

Main Riff:
e-----------------------------|
B-----------------------------|
G-----------------------------|
D----5----------------------5^|
A--7-----5-7---4-7---5-7--7---|
E0-----0-----0-----0-----0----|

Post Chorus:
e-----------------------------|
B-----------------------------|
G---------5---------------7---|
D-7---5-7-5---7--5--7-5-7-7---|
A-7---5-7-3---7--5--7-5-7-5---|
E-5---3-5-----5--3--5-3-5-----|

Lyrics: By Chris Cornell

Verse 1:
There's no time to keep it low
I've been deaf now I want noise
You stay down
But I won't be quiet
I'll hammer on until you fight

Chorus:
Loud Love
Loud Love
Loud Love
Loud Love

Verse 2:
If you've got some time to kill
Slow resistance wins the war
Well I know
But that's no way to go
You can't resist the louder pull

Post-Chorus:
You can't resist the louder pull

Listen to the song for timing and lyrics.
Email me: ktulu54@hotmail.com
Suggest correction
comments
print report bad tab
3 comments total.
+1 reply
Emenius Sleepus 290 Jul 09, 2004 12:00 AM

good as far as the tab went - correct at least,.. but like, half a song is missing, cuz there's a solo, and the interlude riff and all that.. 3 stars just because it's accurate for what it is.

0 reply
Ten_Jam 10 Sep 20, 2007 06:36 PM

the intro is awesome great work

+1 reply
ncl1994 10 Jul 15, 2009 07:51 AM

What's here is really good.

This is the solo at 2:59
e-----------------------------|
B----17-15-17-17--------------|
G-----------------------------|
D-14--------------------------|
A-----------------------------|
E-----------------------------|

e-----------------------------|
B-17----15-15-15-15-----------|
G-----------------------------|
D----12-----------------------|
A-----------------------------|
E-----------------------------|

Then

e-------------------------------------|
B-------------------------------------|
G-------------------------------------|
D-------5^----------------------------|
A-7---7-------7-----5-----------5-----|
E---0-----------0-5-------7-0-7-------|

e----------------------------------------------------------|
B----------------------------------------------------------|
G----------------------------------------------------------|
D-------5^--------------------5-3--------------------------|
A-7---7-------7-----5-----3------------0-0-3-5-------------|
E---0-----------0-5---------1-----------------------7-7-5-0|

And don't shoot me if I'm wrong but I swear that the intro is actually:

e--------------------------|
B-15-19-20-19-15-19-20-19--|
G--------------------------|
D--------------------------|
A--------------------------|
E--------------------------|

e--------------------------|
B-15-19-20-19-15-19-20-19--|
G--------------------------|
D--------------------------|
A--------------------------|
E--------------------------|

e--------------------------|
B-17~~~~~~~~~~~~~----------|
G--------------------------|
D--------------------------|
A--------------------------|
E--------------------------|

guest
You may want to rate the tab now too:
select rating
Wanna post a correction for this tab? Suggest correction