Oops, an error
Loading. Please wait.

Never Named Bass Tab

7 views 7 this week
no commentswrite comment
1 2 3 4 5
3 more votes to show rating
add to favorites
launch autoscroll
font size
0
reset
guitar tuner
Autoscroll
slow
fast
+/-
esc
set tempo
stop
Help us to improve Ultimate-Guitar.com Take our survey!
×
Author
Difficulty
intermediate
About this tab version
Full bass tab, includes all sections. Was this info helpful? Yes No
Artist:    Soundgarden
Song:      Never Named
Tuning:    Standard
Tabbed by: jjhand


Verse 1
G|-------------------------|-------------------------|
D|-------------------------|-------------------------|
A|-3--3--1--------1----2---|-3--3--3--3--3--3--3--3--|
E|----------3-3------------|-------------------------|
  "I               had a dog," 

G|-------------------------|-------------------------|
D|-------------------------|-------------------------|
A|-3--3--1--------1----2---|-3--3--3--3--3--3--3--3--|
E|----------3-3------------|-------------------------|
  "he             was  a   mix"
 
G|-------------------------|-------------------------|
D|-------------------------|-------------------------|
A|-3--3--1--------1----2---|-3--3--3--3--3--3--3--3--|
E|----------3-3------------|-------------------------|
  "He loved me    like a   god" 

G|-------------------------|-------------------------|
D|-------------------------|-------------------------|
A|-3--3--1--------6----7---|-8--8--8--8--8--8--8--8--|
E|----------3--------------|-------------------------|
  "but I was      just a    kid"

G|-------------------------|-------------------------|
D|-------------------------|-------------------------|
A|-3--3--1--------1----2---|-3--3--3--3--3--3--3--3--|
E|----------3-3------------|-------------------------|
  "The kind       mother likes"



Verse Riff 2
G|--------------------------|-------------------------|
D|--------------------------|-------------------------|
A|-6-3-3-3--5--------1------|-3--3--3--3--3--3--3--3--|
E|------------6-6-3---------|-------------------------|
   "Now I'm big     like the sky"

G|--------------------------|-------------------------|
D|--------------------------|-------------------------|
A|-6-3-3-3--5--------1------|-3--3--3--3--3--3--3--3--|
E|------------6-6-3---------|-------------------------|
  "but I'm down     sized inside"




Chorus - some measures have 3 beats (marked 3/4)

                                           3/4
G|-------------------|------------------|------------------|
D|-------------------|------------------|------------------|
A|-8-------6----5----|--------6---------|------------------|
E|-------------------|-8-----------8----|-(8)--------------|
  "I'll   put  this    all    to   rest"
                                           3/4
G|-------------------|------------------|------------------|
D|-------------------|------------------|------------------|
A|-8-------6----5----|--------6---------|------------------|
E|-------------------|-8-----------8----|-(8)---------3--5-|
  "I'm just a baby who looks like a boy"

G|------------------|-------------------|------------------|
D|------------------|-------------------|------------------|
A|------------------|/8-------6----5----|--------6---------|
E|-6----------------|-------------------|-8-----------8----|
                      "I'm    getting      all depressed"

   3/4
G|------------------|-------------------|------------------|
D|------------------|-------------------|------------------|
A|------------------|-8-------6----5----|--------6---------|
E|-(8)--------------|-------------------|-8-----------8----|
                     "I'm just a baby who looks like a boy"

   3/4
G|------------------|-------------------|------------------|
D|------------------|-------------------|------------------|
A|------------------|-------------------|------------------|
E|-(8)---------3--5-|-6-----------------|-1----------------|



Verse 2 - Play verse Riff again


Chorus 2 (1:03) - Play Chorus Riff again, same lyrics


Bridge
G|-------------------------|-------------------------|
D|-------------------------|-------------------------|
A|-3--3--1--------1----2---|-3--3--3--3--3--3--3--3--|
E|----------3-3------------|-------------------------|

G|-------------------------|------------------------|
D|-------------------------|------------------------|
A|----------1--1--1--2--2--|-3--3--3--1-------------|
E|-3--3--3-----------------|---------------0--0--0--|

G|-------------------------|------------------------|
D|-------------------------|------------------------|
A|----------1--1--1--2--2--|-3--3--3--1-------------|
E|-3--3--3-----------------|---------------0--0--0--|

G|-------------------------|------------------------|
D|-------------------------|------------------------|
A|----------1--1--1--2--2--|-3--3--3--1-------------|
E|-3--3--3-----------------|---------------0--0--0--|

G|-------------------------|------------------------|
D|-------------------------|------------------------|
A|----------1--1--1--2--2--|-3--3--3--1-------------|
E|-3--3--3-----------------|---------------0--0--0--|

G|------------------|-------------------------|
D|------------------|-------------------------|
A|----------6---7---|-8--8--8--8--8--8--8--8--|
E|-3----------------|-------------------------|

                                                       2/4
G|-------------------------|-------------------------|------------|
D|-------------------------|-------------------------|------------|
A|-8--8--8--8--8--8--8--8--|-8--8--8--8--8--8--8--8--|-8--8--8--8-|
E|-------------------------|-------------------------|------------|



Final Chorus 
                                           
G|-------------------|----------------------|------------------------|
D|-------------------|----------------------|------------------------|
A|-8-------6----5----|-3--3--1-------1---2--|-3--3--3--3--3--3--3--3-|
E|-------------------|----------3-3---------|------------------------|
  "I'll   put  this    all    to   rest"
                                          
G|-------------------|----------------------|------------------------|
D|-------------------|----------------------|------------------------|
A|-8-------6----5----|-3--3--1-------1---2--|-3--3--3--3--3--3--3--3-|
E|-------------------|----------3-3---------|------------------------|
  "I'm just a baby who looks like a boy"

G|-------------------|----------------------|------------------------|
D|-------------------|----------------------|------------------------|
A|-8-------6----5----|-3--3--1-------1---2--|-3--3--3--3--3--3--3--3-|
E|-------------------|----------3-3---------|------------------------|
  "I'm    getting      all depressed"

   
G|-------------------|------------------|------------------|
D|-------------------|------------------|------------------|
A|-8-------6----5----|--------6---------|------------------|
E|-------------------|-8-----------8----|-(8)--------------|
  "I'm just a baby who looks like a boy"


G|-------------------|------------------|
D|-------------------|------------------|
A|-8-------6----5----|--------6---------|
E|-------------------|-8-----------8----|
  "I'm just a baby who looks like a boy"

   3/4
G|------------------|-------------------|------------------|
D|------------------|-------------------|------------------|
A|------------------|-------------------|------------------|
E|-(8)---------3--5-|-6-----------------|-1----------------|




Ending
G|-------------------------|------------------------|
D|-------------------------|------------------------|
A|----------1--1--1--2--2--|-3--3--3--1-------------|
E|-3--3--3-----------------|---------------0--0--0--|

G|-------------------------|------------------------|
D|-------------------------|------------------------|
A|----------1--1--1--2--2--|-3--3--3--1-------------|
E|-3--3--3-----------------|---------------0--0--0--|

G|-------------------------|------------------------|
D|-------------------------|------------------------|
A|----------1--1--1--2--2--|-3--3--3--1-------------|
E|-3--3--3-----------------|---------------0--0--0--|

G|-------------------------|------------------------|
D|-------------------------|------------------------|
A|----------1--1--1--2--2--|-3--3--3--1-------------|
E|-3--3--3-----------------|---------------0--0--0--|

G|-------------------------|------------------------|
D|-------------------------|------------------------|
A|----------1--1--1--2--2--|-3--3--3--1-------------|
E|-3--3--3-----------------|---------------0--0--0--|

G|-------------------------|-----------------------|-----------|
D|-------------------------|----1-----1------------|-----------|
A|----------1--1--1--1--1--|-2-----2-----2----2----|-3---------|
E|-3--3--3-----------------|-----------------------|-----------|




Key:
| /  slide up
| \  slide down
| h  hammer-on
| p  pull-off
| ~  vibrato
| +  harmonic
| x  Mute note
Suggest correction
Give kudos to tab author, rate the tab!
1 2 3 4 5
comments
print report bad tab
guest
You may want to rate the tab now too:
select rating
Wanna post a correction for this tab? Suggest correction