Oops, an error
Loading. Please wait.

Never The Machine Forever Bass Tab

787 views 3 this week
no commentswrite comment
1 2 3 4 5
2 more votes to show rating
add to favorites
launch autoscroll
font size
0
reset
guitar tuner
Autoscroll
slow
fast
+/-
esc
set tempo
stop
Help us to improve Ultimate-Guitar.com Take our survey!
×
Tuning
E A D G B E
Soundgarden- Never the Machine Forever
Tabbed by a member of the Bass Tab Archive Tabbing army


Tuning   CGCG

Time Signature:  9/8 Verse, Chorus      4/4 on Bridge, Interlude                  

[Verse Riff]
G|-----------------------------------------------------------|
C|-----------------------------------------------------------|
G|-------------------------------3--3---3--------------------|
C|----0--0----0----3--3---3-----------------5--5----5----3---|


[Chorus Riff]  
G|----5--5---5---------------3--3---3---------------------|
C|-----------------------------------------5--5---5-------|
G|--------------------------------------------------------|
C|-----------------3--3---3---------------------------3---|
“Get up” ...


[Bridge Riff]  
G|----------------------|------------------|------------------|
C|----------------------|------------------|------------------|
G|--5--5--5-------------|-3--3--3----------|------------------|
C|----------------------|------------------|-7--7--7----------|
                                 "Forever means" ...

G|----9-/-10-\-9--------------------------------------|
C|----------------------------------------------------|
G|----9-/-10-\-9--------------------------------------|
C|----------------------------------------------------|



[Interlude]
G|---------------------------------------------|
C|----------------12--10----------------10-----|
G|--------------------------12--9--12----------|
C|--0---0---0----------------------------------|


This Riffs are approximate.  Ben Sheperd has a tendency to follow the guitar
parts.
Remember with the Rhythm, it’s not a triplet feel, it’s a eighth note
pattern. It’s easily divided into 2-2-3.
Suggest correction
Give kudos to tab author, rate the tab!
1 2 3 4 5
comments
print report bad tab
guest
You may want to rate the tab now too:
select rating
Wanna post a correction for this tab? Suggest correction