Oops, an error
Loading. Please wait.

New Damage Tab

version 2
version 2

Whole song

2,042 views 1 this week
no commentswrite comment
1 2 3 4 5
please rate
add to favorites
launch autoscroll
font size
0
reset
how to read this tab
guitar tuner
Tab Pro tools
  • play this tab
  • loop segment
  • change instrument
  • show fretboard
  • metronome
×
Best way to learn
"New Damage"
Autoscroll
slow
fast
+/-
esc
set tempo
stop
Contributor
SOUNDGARDEN

NEW DAMAGE

tabbed by dan

TUNING (low to high): DGDGBE

|---------------------|
|---------------------|
|---------------0-----|
|---------------------|
|---------------------|
|------1--2--1----0---|
intro

|----------------------------------|
|----------------------------------|
|----------------------------0-----|
|----------------------------------|
|----------------------------------|
|--5----4----3------1--2--1----0---|
verses

|-----------------------------------|
|-----------------------------------|
|-----------------------------0-----|
|-----------------------------------|
|-------3---------------------------|
|--5---------3-------1--2--1----0---|
occasionally play this in verse

|--------------------------------------------------------------------|
|--------------------------------------------------------------------|
|--------------------------------------------------------------------|
|----12-12-12-12-12---11-11-11-11-11---10-10-10-10-10-----5------8---|
|--------------------------------------------------------------------|
|----12-12-12-12-12---11-11-11-11-11---10-10-10-10-10-----5------8---|
chorus

|---------------------------------------|
|---------------------------------------|
|--------5------5------5------5------0--|
|------5------5------5------5------5----|
|----5------5------5------5------5------|
|---------------------------------------|
end part 1 

|-----------------------------|------|-------------------------------|
|-----------------------------|------|-------------------------------|
|-------10--12--12b14-12--10--|------|------10--12-12b14r12--10------|
|---12------------------------|------|---12----------------------8---|
|-----------------------------|------|-------------------------------|
|-----------------------------|------|-------------------------------|
end part 2

      x3                then this
|----------------------|----------------------------------------------------|
|----------------------|----------------------------------------------------|
|----------------------|------------------------------------------------0---|
|----7-----7--9----3---|---7---7--9----5---9---10----5---9--10--------------|
|----------------------|----------------------------------------------------|
|----7-----7--9----3---|---7---7--9----5---9---10----5---9--10----1-2-1---0-|
next part   (before you drown....)

|-------------------------------------------|----------------------------|
|-------------------------------------------|----------------------------|
|-------------------------------------------|----------------------0-----|
|---------------------3--5------------------|--5---9---10----------------|
|---5---4----------5--------3--5------------|----------------------------|
|-----------5--3------------------3--5--0---|--5---9---10----1-2-1---0---|
interlude     x7

the rest is repeats. easy to figure out.


comments
We did not receive enough feedback on this tab! Please rate:
print report bad tab
1 2 3 4 5
I want to post or [tab]
guest
You may want to rate the tab now too:
select rating
Please do not post tabs as comments. Select "correction" instead!