Oops, an error
Loading. Please wait.

No Attention Bass Tab

version 1
version 1

Whole song

Interactive

327 views 3 this week
no commentswrite comment
1 2 3 4 5
please rate
add to favorites
launch autoscroll
font size
0
reset
guitar tuner
Autoscroll
slow
fast
+/-
esc
set tempo
stop
Help us to improve Ultimate-Guitar.com Take our survey!
×
Author
Difficulty
Tuning
intermediate
D A D G B E
Soundgarden - 'No Attention'
From 'Down on the Upside'
Drop D tuning, with bass fuzz effects
tabbed by jjhand


Main Riff - played 3x on first time through
G|------------------------------------|------------------|
D|------------------------------------|------------------|
A|------------------------------------|------------------|
D|-14-14-12-9---12-12-10-7---14-14-12-|-9----------------|

G|------------------------------------|------------------|
D|------------------------------------|------------------|
A|------------------------------------|------------------|
D|-14-14-12-9---12-12-10-7---14-14-12-|-7----------------|





Chorus - 
G|---------------------------|-7-7---7-7---9---7-7---7-7-----|
D|-9-9-7-9-9----9-9-7-9-9----|-----9-----9---------9-----9-7-|
A|---------------------------|-------------------------------|
D|-----------0------------0--|-------------------------------|

G|---------------------------|-7-7---7-7-------7-7---7-7-----|
D|-9-9-7-9-9----9-9-7-9-9----|-----9-----7-7-------9-----7-7-|
A|---------------------------|-------------------------------|
D|-----------0------------0--|-------------------------------|



Play Main Riff Again



(1:07) Play Chorus Riff Again, similar to before



(1:26) 'No Attention'
G|-----------|
D|-9----9----|  play this 5x
A|-----------|
D|-----------|




During Solo, play this 4x:
 
G|---------------------------|-7-7---7---------7-7---7-7-----|
D|-9-9-7-9------9-9-7-9------|-----9-----7-7-------9-----7-7-|
A|---------------------------|-------------------------------|
D|----------0-0----------0-0-|-------------------------------|


(1:51)
G|-------------------------|-------------------------|
D|-----7p9-----------------|-------7-----------------|
A|-7p9-------9---7\5---5---|-5-7/9-----9---7p5---5---|
D|-------------------9-----|-------------------9-----|


play this bar 14x   
G|------------------------------|
D|--------9---------------------|
A|-5--7/9-9---9--9-5--5---5-5---|
D|------------------------------|

 Chris will sing 'I pay no attention' during this bass riff & 
guitar will build up


(2:24) Play 'No Attention' Part again (from 1:26) with low B's:
G|----------------------|
D|----------------------|
A|----------------------|
D|-9----9-----9----9----|



(2:36-3:22) Play Main Riff Slower




   End of Main Riff - play 4x

G|----------------------------|-------------------------|
D|----------------------------|-------------------------|
A|-------2---5-5-2-0---2-0----|-0-0---------------------|
D|-2-2-0-------------------5--|-----5-2---0-------------|


  Ending
G|------------------------|-------------------------|
D|------------------------|-------------------------|
A|------------------------|-------------------------|
D|-0~~~-------------------|-11b12r~-----------------|
Suggest correction
Give kudos to tab author, rate the tab!
1 2 3 4 5
comments
print report bad tab
guest
You may want to rate the tab now too:
select rating
Wanna post a correction for this tab? Suggest correction