Oops, an error
Loading. Please wait.

Non-State Actor Tab

8,619 views 3 this week
no commentswrite comment
1 2 3 4 5
excellent!
x 10
add to favorites
launch autoscroll
font size
0
reset
how to read this tab
guitar tuner
Tab Pro tools
  • play this tab
  • loop segment
  • change instrument
  • show fretboard
  • metronome
×
Best way to learn
"Non-state Actor"
Autoscroll
slow
fast
+/-
esc
set tempo
stop
Contributor
Non-State Actor

Soundgarden

Tabbed by: Brownbear93

Standard


Main Riff:
|-------------------------------------------------|
|-------------------------------------------------|
|-------------------------------------------------|x6
|-------------------------------------------------|
|----------10-------12-------------9-------10-----|
|--0h10h12----12-10----10-12-12-12---10-10----0---|



Verse:
                                        
|--------------------------------------|--------------------------------------------|
|--------------------------------------|--------------------------------------------|
|--------------------------------------|--------------------------------------------|x2
|--------------------------------------|--------------------------------------------|
|------------12------------------------|-------------12-----------------------------|
|---10h12p10----10---10--10--10--9-9-9-|-0--10h12p10----10---10--10--10--10-10-10-0-|


|--------------------------------------|--------------------------------------------|
|--------------------------------------|--------------------------------------------|
|--------------------------------------|--------------------------------------------|
|--------------------------------------|--------------------------------------------|
|------------12------------------------|-------------12-----------------------------|
|---10h12p10----10---10--10--10--9-9-9-|-0--10h12p10----10---10--10--10--10-10-10/--|

|------------------------------------------|
|------------------------------------------|
|------------------------------------------|
|------------------------------------------|
|-----/12----/14---------------------------|
|--7------10-----12---12--12-10--10--10--0-|

|--------------------------------------|--------------------------------------------|
|--------------------------------------|--------------------------------------------|
|--------------------------------------|--------------------------------------------|x3
|--------------------------------------|--------------------------------------------|
|------------12------------------------|-------------12-----------------------------|
|---10h12p10----10---10--10--10--9-9-9-|-0--10h12p10----10---10--10--10--10-10-10-0-|


Chorus:
G1                                           x4                      x3
|-----------------------------------------------|---------------------|
|-----------------------------------------------|---------------------|
|--9----9-9-9\7--7-7-7\-------------------------|---------------------|
|--9----9-9-9\7--7-7-7\--7--7-7-----------------|---------------------|
|--7----7-7-7\5--5-5-5\--7--7-7--9-------10-----|--9-------10---------|
|------------------------5--5-5----10-10----0-0-|----10-10----0-0-----|

G2
|---------0-------|
|---------3-------|x3
|------4----------|
|---2-------------|
|-----------------|
|-----------------|


Main Riff x4

G2
|---------------------|
|----(12~)------------|
|---------------------|
|---------------------|
|---------------------|
|---------------------|


Verse 

Chorus

2nd Chorus Ending:
G2
|------------------------------------------|
|------------------------------------------|
|---9-9\--------12-12\--------7-7\---------|x4
|---9-9\--------12-12\--------7-7\---------|
|---7-7\--------10-10\--------5-5\---------|
|------------------------------------------|


Bridge:

G1 (Rhythm)                    x3
|-------------------------------|----------------------------------------------------|
|-------------------------------|----------------------------------------------------|x2
|-------------------------------|----------------------------------------------------|
|-------------------------------|----------------------------------------------------|
|--9-------------9-------10-----|--9--------------/12----/14-------------------------|
|----10-10-10-10---10-10----0-0-|----10-10-10\--7-----10-----12---12--12-10-10-10--0-|

                               x2
|-------------------------------|----------------|
|-------------------------------|----------------|
|-------------------------------|----------------|
|-------------------------------|----------------|
|--9-------------9-------10-----|---9------------|
|----10-10-10-10---10-10----0-0-|-----10-10-10---|



I honestly don't know whats going on in this part...all i know is these are the notes
G2
|---(19)------(20)----------------------------------------------------|
|--------(20)-----------(15)----------(19)----------------(20)--------|
|---------------------------------------------------------------------|
|---------------------------------------------------------------------|
|---------------------------------------------------------------------|
|---------------------------------------------------------------------|

|-------------------------------------------------------------------------------------|
|-----------------------------------------/12-12-12-12-12-12-12-12-15-15-15-12-12-12--|
|--/9-9-9/13-13-13-13-13-13\11-11-11\9-9----------------------------------------------|
|-------------------------------------------------------------------------------------|
|-------------------------------------------------------------------------------------|
|-------------------------------------------------------------------------------------|

|-----------------------------------------------------------------|
|-----------------------------------------------------------------|
|--9-9-9-9-9-9-9-9-9-9-9-9-9-9-9-9-9-9-9-9-9-9-9-9-9--/13-13------|
|-----------------------------------------------------------------|
|-----------------------------------------------------------------|
|-----------------------------------------------------------------|


Chorus

G2
|------------------------------------|
|--15-----------------15--------11---|
|--14b----------------17b-------13b--|
|------------------------------------|
|------------------------------------|
|------------------------------------|

End solo:
|------------------------------------------------------------------------------------|
|-15b-12-12-15p12----12-15p12----12--------------------------------------------------|
|-----------------14----------14----14p12----14b--12-14p12---------------------------|
|-----------------------------------------14---------------14-12-14-------12/14-14~--|
|-------------------------------------------------------------------12h14------------|
|------------------------------------------------------------------------------------|

************************************

| /   slide up
| \   slide down
| h   hammer-on
| p   pull-off
| ~   vibrato
| +   harmonic
| x   Mute note
| b   Bend
| pb  Pre-bend
| br  Bend release
| pbr Pre-bend release
| brb Bend release bend

************************************
comments
print report bad tab
I want to post or [tab]
guest
You may want to rate the tab now too:
select rating
Please do not post tabs as comments. Select "correction" instead!