Oops, an error
Loading. Please wait.

Outshined Bass

version 1
version 1

Whole song

Interactive

25,395 views 45 this week
4 commentsread comments
1 2 3 4 5
x 16
add to favorites
launch autoscroll
font size
0
reset
guitar tuner
backing track
0:00
0:00
×
Best way to learn
"Outshined"
Autoscroll
slow
fast
+/-
esc
set tempo
stop
Author
Tuned to drop D.

G|----------------------------------------------------------------------------|
D|----------------------------------------------------------------------------|
A|----------------------------------------------3-----------------------------|
E|----0-----0-----3-----5-----3-----0-----3-------------6-----5-----3sl/------|  (part A)

G|----------------------------------------------------------------------------|
D|----------------------------------------------------------------------------|
A|-----------------------------------------------------------------3sl/-------|
E|----0-----0-----3-----5-----3-----0-----3-----6-----5-----3-----------------|  (part B)

G|----------------------------------------------------------------------------|
D|----------------------------------------------------------------------------|
A|----------------------------------------------------------------------------|
E|----0-----------------------------------------------------------------------|  (let ring) (part C)

G|----------------------------------------------------------------------------|
D|----------------------------------------------------------------------------|
A|----5-----5-----10----------9-----9-----7-----5-----------------------------|
E|----------------------------------------------------------------------------|  (part D)

G|----------------------------------------------------------------------------|
D|--------7h9--9--9--9--9-----------------------------------------------------|
A|----------------------------------------------------------------------------|
E|--------------------------0-------------------------------------------------|  (part E)

G|----------------------------------------------------------------------------|
D|----------------------------------------------------------------------------|
A|----------------------------------------------------------------------------|
E|----7-----5-----0-----3-----5-----0----------5-----3-----0-----3------------|

G|----------------------------------------------------------------------------|
D|----------------------------------------------------------------------------|
A|----------------------------------------------------------------------------|
E|----0--3-----6-6-6-5-----3-----0--------------------------------------------|  (part F)

G|----------------------------------------------------------------------------|
D|----------------------------------------------------------------------------|
A|----------5-3-0-3--3-3-0-3--3-----------------------------------------------|
E|-------------------------------0--------------------------------------------|  (part G)

G|----------------------------------------------------------------------------|
D|----------------------------------------------------------------------------|
A|----3--3-----3--3-----3--3-----3--3-----------------------------------------|
E|----------------------------------------12sl\-------------------------------|  (part H)

G|-------|
D|-------|
A|----5--|
E|-------|  (let ring) (part I)

G|----------------------------------------------------------------------------|
D|----------------------------------------------------------------------------|
A|----5-----5-----5-----5-----5-----5-----5-----5-----------------------------|
E|----------------------------------------------------------------------------|  (part J)

G|---------7------7---7---------7-------7------5h7----------------------------|
D|-----------------------------------------5h7--------------------------------|
A|----5------5------5---5---------5-------------------------------------------|
E|----------------------------------------------------------------------------| (part K*)

G|----------------------------------------------------------------------------|
D|----------------------------------------------------------------------------|
A|----3--3-----3--3-----3--3-----3--3-----------------------------------------|
E|------------------------------------------0---3----0-3----6-6-6-5---3---0---|  (part L)



************************************

| h  Hammer-on

************************************
Suggest correction
comments
print report bad tab
4 comments total. Showing first comments.
+1 reply
HawkBassNelson 91 Aug 19, 2010 11:14 AM

Almost 100 percent correct, but did you have to do 75 letter+ order???

+3 reply
skeledude444 10 Sep 15, 2010 05:14 PM

G----------------------------------------------------------------------------|
D----------------------------------------------------------------------------|
A----------------------------------------------3-----------------------------|
D----0-----0-----3-----5-----3-----0-----3-------------6-----5-----3sl/------|x3

G----------------------------------------------------------------------------|
D----------------------------------------------------------------------------|
A-----------------------------------------------------------------3sl/-------|
D----0-----0-----3-----5-----3-----0-----3-----6-----5-----3-----------------|

G----------------------------------------------------------------------------|
D----------------------------------------------------------------------------|
A----------------------------------------------3-----------------------------|
D----0-----0-----3-----5-----3-----0-----3-------------6-----5-----3sl/------|x4

G----------------------------------------------------------------------------|
D----------------------------------------------------------------------------|
A-----------------------------------------------------------------3sl/-------|
D----0-----0-----3-----5-----3-----0-----3-----6-----5-----3-----------------|

G----------------------------------------------------------------------------|
D----------------------------------------------------------------------------|
A----------------------------------------------3-----------------------------|
D----0-----0-----3-----5-----3-----0-----3-------------6-----5-----3sl/------|x4

G----------------------------------------------------------------------------|
D----------------------------------------------------------------------------|
A----------------------------------------------------------------------------|
D----0-----------------------------------------------------------------------|

G----------------------------------------------------------------------------|
D----------------------------------------------------------------------------|
A----5-----5-----10----------9-----9-----7-----5-----------------------------|
D----------------------------------------------------------------------------|x3

G----------------------------------------------------------------------------|
D--------7h9--9--9--9--9-----------------------------------------------------|
A----------------------------------------------------------------------------|
D--------------------------0-------------------------------------------------|

G----------------------------------------------------------------------------|
D----------------------------------------------------------------------------|
A----------------------------------------------------------------------------|
D----7-----5-----0-----3-----5-----0----------5-----3-----0-----3------------|

G----------------------------------------------------------------------------|
D----------------------------------------------------------------------------|
A----------------------------------------------------------------------------|
D----0--3-----6-6-6-5-----3-----0--------------------------------------------|

G----------------------------------------------------------------------------|
D----------------------------------------------------------------------------|
A----------5-3-0-3--3-3-0-3--3-----------------------------------------------|
D-------------------------------0--------------------------------------------|

G----------------------------------------------------------------------------|
D----------------------------------------------------------------------------|
A----------------------------------------------------------------------------|
D----0--3-----6-6-6-5-----3-----0--------------------------------------------|

G----------------------------------------------------------------------------|
D----------------------------------------------------------------------------|
A----------5-3-0-3--3-3-0-3--3-----------------------------------------------|
D-------------------------------0--------------------------------------------|x2

G----------------------------------------------------------------------------|
D----------------------------------------------------------------------------|
A----3--3-----3--3-----3--3-----3--3-----------------------------------------|
D----------------------------------------12sl\-------------------------------|

G----------------------------------------------------------------------------|
D----------------------------------------------------------------------------|
A----------------------------------------------3-----------------------------|
D----0-----0-----3-----5-----3-----0-----3-------------6-----5-----3sl/------|x3

G----------------------------------------------------------------------------|
D----------------------------------------------------------------------------|
A-----------------------------------------------------------------3sl/-------|
D----0-----0-----3-----5-----3--

0 reply
AtheistBuckeye 10 Jul 17, 2011 11:40 AM

skeledude444's version sounds more accurate.

guest
You may want to rate the tab now too:
select rating
Wanna post a correction for this tab? Suggest correction